  0
SECTION
  2
HEADER
  9
$ACADVER
  1
AC1015
  9
$ACADMAINTVER
 70
     6
  9
$DWGCODEPAGE
  3
ANSI_932
  9
$INSBASE
 10
0.0
 20
0.0
 30
0.0
  9
$EXTMIN
 10
-117.6069841392893
 20
817.5308658634675
 30
0.0
  9
$EXTMAX
 10
682.3930158607106
 20
1367.530865863467
 30
0.0
  9
$LIMMIN
 10
0.0
 20
0.0
  9
$LIMMAX
 10
420.0
 20
297.0
  9
$ORTHOMODE
 70
     0
  9
$REGENMODE
 70
     1
  9
$FILLMODE
 70
     1
  9
$QTEXTMODE
 70
     0
  9
$MIRRTEXT
 70
     1
  9
$LTSCALE
 40
1.0
  9
$ATTMODE
 70
     1
  9
$TEXTSIZE
 40
2.5
  9
$TRACEWID
 40
1.0
  9
$TEXTSTYLE
  7
Standard
  9
$CLAYER
  8
0
  9
$CELTYPE
  6
ByLayer
  9
$CECOLOR
 62
     0
  9
$CELTSCALE
 40
0.5
  9
$DISPSILH
 70
     0
  9
$DIMSCALE
 40
1.0
  9
$DIMASZ
 40
5.0
  9
$DIMEXO
 40
2.0
  9
$DIMDLI
 40
3.75
  9
$DIMRND
 40
0.0
  9
$DIMDLE
 40
0.0
  9
$DIMEXE
 40
5.0
  9
$DIMTP
 40
0.0
  9
$DIMTM
 40
0.0
  9
$DIMTXT
 40
6.0
  9
$DIMCEN
 40
2.5
  9
$DIMTSZ
 40
0.0
  9
$DIMTOL
 70
     0
  9
$DIMLIM
 70
     0
  9
$DIMTIH
 70
     0
  9
$DIMTOH
 70
     0
  9
$DIMSE1
 70
     0
  9
$DIMSE2
 70
     0
  9
$DIMTAD
 70
     1
  9
$DIMZIN
 70
     8
  9
$DIMBLK
  1

  9
$DIMASO
 70
     1
  9
$DIMSHO
 70
     1
  9
$DIMPOST
  1

  9
$DIMAPOST
  1

  9
$DIMALT
 70
     0
  9
$DIMALTD
 70
     3
  9
$DIMALTF
 40
0.1
  9
$DIMLFAC
 40
1.0
  9
$DIMTOFL
 70
     1
  9
$DIMTVP
 40
0.0
  9
$DIMTIX
 70
     0
  9
$DIMSOXD
 70
     0
  9
$DIMSAH
 70
     0
  9
$DIMBLK1
  1

  9
$DIMBLK2
  1

  9
$DIMSTYLE
  2
ISO-25
  9
$DIMCLRD
 70
     7
  9
$DIMCLRE
 70
     7
  9
$DIMCLRT
 70
     0
  9
$DIMTFAC
 40
1.0
  9
$DIMGAP
 40
3.0
  9
$DIMJUST
 70
     0
  9
$DIMSD1
 70
     0
  9
$DIMSD2
 70
     0
  9
$DIMTOLJ
 70
     0
  9
$DIMTZIN
 70
     8
  9
$DIMALTZ
 70
     0
  9
$DIMALTTZ
 70
     0
  9
$DIMUPT
 70
     0
  9
$DIMDEC
 70
     2
  9
$DIMTDEC
 70
     2
  9
$DIMALTU
 70
     2
  9
$DIMALTTD
 70
     3
  9
$DIMTXSTY
  7
Standard
  9
$DIMAUNIT
 70
     0
  9
$DIMADEC
 70
     0
  9
$DIMALTRND
 40
0.0
  9
$DIMAZIN
 70
     0
  9
$DIMDSEP
 70
    46
  9
$DIMATFIT
 70
     3
  9
$DIMFRAC
 70
     0
  9
$DIMLDRBLK
  1

  9
$DIMLUNIT
 70
     2
  9
$DIMLWD
 70
     9
  9
$DIMLWE
 70
     9
  9
$DIMTMOVE
 70
     0
  9
$LUNITS
 70
     2
  9
$LUPREC
 70
     4
  9
$SKETCHINC
 40
1.0
  9
$FILLETRAD
 40
2.0
  9
$AUNITS
 70
     0
  9
$AUPREC
 70
     0
  9
$MENU
  1
.
  9
$ELEVATION
 40
0.0
  9
$PELEVATION
 40
0.0
  9
$THICKNESS
 40
0.0
  9
$LIMCHECK
 70
     0
  9
$CHAMFERA
 40
0.3
  9
$CHAMFERB
 40
0.3
  9
$CHAMFERC
 40
20.0
  9
$CHAMFERD
 40
0.0
  9
$SKPOLY
 70
     0
  9
$TDCREATE
 40
2454873.622250069
  9
$TDUCREATE
 40
2454873.247250069
  9
$TDUPDATE
 40
2459635.601790833
  9
$TDUUPDATE
 40
2459635.226790833
  9
$TDINDWG
 40
0.7524534491
  9
$TDUSRTIMER
 40
0.7524534491
  9
$USRTIMER
 70
     1
  9
$ANGBASE
 50
0.0
  9
$ANGDIR
 70
     0
  9
$PDMODE
 70
     0
  9
$PDSIZE
 40
0.0
  9
$PLINEWID
 40
0.0
  9
$SPLFRAME
 70
     0
  9
$SPLINETYPE
 70
     6
  9
$SPLINESEGS
 70
     8
  9
$HANDSEED
  5
A8E7
  9
$SURFTAB1
 70
     6
  9
$SURFTAB2
 70
     6
  9
$SURFTYPE
 70
     6
  9
$SURFU
 70
     6
  9
$SURFV
 70
     6
  9
$UCSBASE
  2

  9
$UCSNAME
  2

  9
$UCSORG
 10
0.0
 20
0.0
 30
0.0
  9
$UCSXDIR
 10
1.0
 20
0.0
 30
0.0
  9
$UCSYDIR
 10
0.0
 20
1.0
 30
0.0
  9
$UCSORTHOREF
  2

  9
$UCSORTHOVIEW
 70
     0
  9
$UCSORGTOP
 10
0.0
 20
0.0
 30
0.0
  9
$UCSORGBOTTOM
 10
0.0
 20
0.0
 30
0.0
  9
$UCSORGLEFT
 10
0.0
 20
0.0
 30
0.0
  9
$UCSORGRIGHT
 10
0.0
 20
0.0
 30
0.0
  9
$UCSORGFRONT
 10
0.0
 20
0.0
 30
0.0
  9
$UCSORGBACK
 10
0.0
 20
0.0
 30
0.0
  9
$PUCSBASE
  2

  9
$PUCSNAME
  2

  9
$PUCSORG
 10
0.0
 20
0.0
 30
0.0
  9
$PUCSXDIR
 10
1.0
 20
0.0
 30
0.0
  9
$PUCSYDIR
 10
0.0
 20
1.0
 30
0.0
  9
$PUCSORTHOREF
  2

  9
$PUCSORTHOVIEW
 70
     0
  9
$PUCSORGTOP
 10
0.0
 20
0.0
 30
0.0
  9
$PUCSORGBOTTOM
 10
0.0
 20
0.0
 30
0.0
  9
$PUCSORGLEFT
 10
0.0
 20
0.0
 30
0.0
  9
$PUCSORGRIGHT
 10
0.0
 20
0.0
 30
0.0
  9
$PUCSORGFRONT
 10
0.0
 20
0.0
 30
0.0
  9
$PUCSORGBACK
 10
0.0
 20
0.0
 30
0.0
  9
$USERI1
 70
     0
  9
$USERI2
 70
     0
  9
$USERI3
 70
     0
  9
$USERI4
 70
     0
  9
$USERI5
 70
     0
  9
$USERR1
 40
0.0
  9
$USERR2
 40
0.0
  9
$USERR3
 40
0.0
  9
$USERR4
 40
0.0
  9
$USERR5
 40
0.0
  9
$WORLDVIEW
 70
     1
  9
$SHADEDGE
 70
     3
  9
$SHADEDIF
 70
    70
  9
$TILEMODE
 70
     1
  9
$MAXACTVP
 70
    64
  9
$PINSBASE
 10
0.0
 20
0.0
 30
0.0
  9
$PLIMCHECK
 70
     0
  9
$PEXTMIN
 10
1.042221639059562
 20
1.08829855961801
 30
0.0
  9
$PEXTMAX
 10
407.82803226079
 20
284.1844718556203
 30
0.0
  9
$PLIMMIN
 10
-5.873748779296875
 20
-5.873749732971191
  9
$PLIMMAX
 10
414.0729064941406
 20
291.0522451400757
  9
$UNITMODE
 70
     0
  9
$VISRETAIN
 70
     1
  9
$PLINEGEN
 70
     0
  9
$PSLTSCALE
 70
     1
  9
$TREEDEPTH
 70
  3020
  9
$CMLSTYLE
  2
Standard
  9
$CMLJUST
 70
     0
  9
$CMLSCALE
 40
20.0
  9
$PROXYGRAPHICS
 70
     1
  9
$MEASUREMENT
 70
     1
  9
$CELWEIGHT
370
    -1
  9
$ENDCAPS
280
     0
  9
$JOINSTYLE
280
     0
  9
$LWDISPLAY
290
     0
  9
$INSUNITS
 70
     4
  9
$HYPERLINKBASE
  1

  9
$STYLESHEET
  1

  9
$XEDIT
290
     1
  9
$CEPSNTYPE
380
     0
  9
$PSTYLEMODE
290
     1
  9
$FINGERPRINTGUID
  2
{951E45A9-2098-449B-99F4-687C375CF490}
  9
$VERSIONGUID
  2
{43E32FA5-C69F-4A99-B0B5-3D9945999B01}
  9
$EXTNAMES
290
     1
  9
$PSVPSCALE
 40
0.0
  9
$OLESTARTUP
290
     0
  0
ENDSEC
  0
SECTION
  2
CLASSES
  0
CLASS
  1
ACDBDICTIONARYWDFLT
  2
AcDbDictionaryWithDefault
  3
AutoCAD 2000
 90
        0
280
     0
281
     0
  0
CLASS
  1
ACDBPLACEHOLDER
  2
AcDbPlaceHolder
  3
AutoCAD 2000
 90
        0
280
     0
281
     0
  0
CLASS
  1
LAYOUT
  2
AcDbLayout
  3
AutoCAD 2000
 90
        0
280
     0
281
     0
  0
CLASS
  1
RASTERVARIABLES
  2
AcDbRasterVariables
  3
ISM
 90
        0
280
     0
281
     0
  0
CLASS
  1
DICTIONARYVAR
  2
AcDbDictionaryVar
  3
AutoCAD 2000
 90
        0
280
     0
281
     0
  0
ENDSEC
  0
SECTION
  2
TABLES
  0
TABLE
  2
VPORT
  5
8
330
0
100
AcDbSymbolTable
 70
     3
  0
VPORT
  5
A8E6
330
8
100
AcDbSymbolTableRecord
100
AcDbViewportTableRecord
  2
*Active
 70
     0
 10
0.0
 20
0.0
 11
1.0
 21
1.0
 12
411.3863708197243
 22
859.2462098072701
 13
0.0
 23
0.0
 14
10.0
 24
10.0
 15
10.0
 25
10.0
 16
0.0
 26
0.0
 36
1.0
 17
0.0
 27
0.0
 37
0.0
 40
776.0720938891831
 41
1.477300613496932
 42
50.0
 43
0.0
 44
0.0
 50
0.0
 51
0.0
 71
     0
 72
   100
 73
     1
 74
     3
 75
     0
 76
     0
 77
     0
 78
     0
281
     0
 65
     1
110
0.0
120
0.0
130
0.0
111
1.0
121
0.0
131
0.0
112
0.0
122
1.0
132
0.0
 79
     0
146
0.0
  0
ENDTAB
  0
TABLE
  2
LTYPE
  5
5
330
0
100
AcDbSymbolTable
 70
     5
  0
LTYPE
  5
14
330
5
100
AcDbSymbolTableRecord
100
AcDbLinetypeTableRecord
  2
ByBlock
 70
     0
  3

 72
    65
 73
     0
 40
0.0
  0
LTYPE
  5
15
330
5
100
AcDbSymbolTableRecord
100
AcDbLinetypeTableRecord
  2
ByLayer
 70
     0
  3

 72
    65
 73
     0
 40
0.0
  0
LTYPE
  5
16
330
5
100
AcDbSymbolTableRecord
100
AcDbLinetypeTableRecord
  2
Continuous
 70
     0
  3
Solid line
 72
    65
 73
     0
 40
0.0
  0
LTYPE
  5
35
330
5
100
AcDbSymbolTableRecord
100
AcDbLinetypeTableRecord
  2
HIDDEN
 70
     0
  3
Hidden __ __ __ __ __ __ __ __ __ __ __ __ __ _
 72
    65
 73
     2
 40
9.524999999999998
 49
6.349999999999999
 74
     0
 49
-3.174999999999999
 74
     0
  0
LTYPE
  5
36
330
5
100
AcDbSymbolTableRecord
100
AcDbLinetypeTableRecord
  2
HIDDEN2
 70
     0
  3
Hidden (.5x) _ _ _ _ _ _ _ _ _ _ _ _ _ _ _ _ _
 72
    65
 73
     2
 40
4.762499999999999
 49
3.174999999999999
 74
     0
 49
-1.587499999999999
 74
     0
  0
LTYPE
  5
37
330
5
100
AcDbSymbolTableRecord
100
AcDbLinetypeTableRecord
  2
CENTER
 70
     0
  3
Center ____ _ ____ _ ____ _ ____ _ ____ _ ____
 72
    65
 73
     4
 40
50.8
 49
31.75
 74
     0
 49
-6.349999999999999
 74
     0
 49
6.349999999999999
 74
     0
 49
-6.349999999999999
 74
     0
  0
LTYPE
  5
38
330
5
100
AcDbSymbolTableRecord
100
AcDbLinetypeTableRecord
  2
PHANTOM2
 70
     0
  3
Phantom (.5x) ___ _ _ ___ _ _ ___ _ _ ___ _ _
 72
    65
 73
     6
 40
31.75
 49
15.875
 74
     0
 49
-3.174999999999999
 74
     0
 49
3.174999999999999
 74
     0
 49
-3.174999999999999
 74
     0
 49
3.174999999999999
 74
     0
 49
-3.174999999999999
 74
     0
  0
ENDTAB
  0
TABLE
  2
LAYER
  5
2
330
0
100
AcDbSymbolTable
 70
    15
  0
LAYER
  5
10
330
2
100
AcDbSymbolTableRecord
100
AcDbLayerTableRecord
  2
0
 70
     0
 62
     7
  6
Continuous
370
     9
390
F
  0
LAYER
  5
39
330
2
100
AcDbSymbolTableRecord
100
AcDbLayerTableRecord
  2
１
 70
     0
 62
     2
  6
Continuous
370
     9
390
F
  0
LAYER
  5
3A
330
2
100
AcDbSymbolTableRecord
100
AcDbLayerTableRecord
  2
２
 70
     0
 62
     3
  6
Continuous
370
    20
390
F
  0
LAYER
  5
3B
330
2
100
AcDbSymbolTableRecord
100
AcDbLayerTableRecord
  2
３
 70
     0
 62
     4
  6
HIDDEN
370
    15
390
F
  0
LAYER
  5
3C
330
2
100
AcDbSymbolTableRecord
100
AcDbLayerTableRecord
  2
４
 70
     0
 62
     4
  6
HIDDEN2
370
    15
390
F
  0
LAYER
  5
3D
330
2
100
AcDbSymbolTableRecord
100
AcDbLayerTableRecord
  2
５
 70
     0
 62
     6
  6
CENTER
370
    15
390
F
  0
LAYER
  5
3E
330
2
100
AcDbSymbolTableRecord
100
AcDbLayerTableRecord
  2
６
 70
     0
 62
     5
  6
PHANTOM2
370
    15
390
F
  0
LAYER
  5
46
330
2
100
AcDbSymbolTableRecord
100
AcDbLayerTableRecord
  2
Defpoints
 70
     0
 62
     7
  6
Continuous
290
     0
370
    -3
390
F
  0
LAYER
  5
AB
330
2
100
AcDbSymbolTableRecord
100
AcDbLayerTableRecord
  2
Object
 70
     0
 62
     3
  6
Continuous
370
    20
390
F
  0
LAYER
  5
63B4
330
2
100
AcDbSymbolTableRecord
100
AcDbLayerTableRecord
  2
HIDDEN2
 70
     0
 62
     7
  6
HIDDEN2
370
    15
390
F
  0
LAYER
  5
64C8
330
2
100
AcDbSymbolTableRecord
100
AcDbLayerTableRecord
  2
1
 70
     0
 62
     7
  6
Continuous
370
     9
390
F
  0
LAYER
  5
64C9
330
2
100
AcDbSymbolTableRecord
100
AcDbLayerTableRecord
  2
2
 70
     0
 62
     3
  6
Continuous
370
    20
390
F
  0
LAYER
  5
88C5
330
2
100
AcDbSymbolTableRecord
100
AcDbLayerTableRecord
  2
Defined Points
 70
     0
 62
     2
  6
Continuous
370
    13
390
F
  0
LAYER
  5
9CA0
330
2
100
AcDbSymbolTableRecord
100
AcDbLayerTableRecord
  2
CENTER
 70
     0
 62
     7
  6
CENTER
370
     5
390
F
  0
LAYER
  5
9EEA
330
2
100
AcDbSymbolTableRecord
100
AcDbLayerTableRecord
  2
Hidden
 70
     0
 62
     4
  6
HIDDEN
370
    13
390
F
  0
ENDTAB
  0
TABLE
  2
STYLE
  5
3
330
0
100
AcDbSymbolTable
 70
     3
  0
STYLE
  5
11
330
3
100
AcDbSymbolTableRecord
100
AcDbTextStyleTableRecord
  2
Standard
 70
     0
 40
0.0
 41
1.0
 50
0.0
 71
     0
 42
2.5
  3
romans.shx
  4
bigfont.shx
  0
STYLE
  5
34
330
3
100
AcDbSymbolTableRecord
100
AcDbTextStyleTableRecord
  2

 70
     1
 40
0.0
 41
1.0
 50
0.0
 71
     0
 42
2.5
  3
ltypeshp.shx
  4

  0
STYLE
  5
12E
330
3
100
AcDbSymbolTableRecord
100
AcDbTextStyleTableRecord
  2
ｽﾀｲﾙ1
 70
     0
 40
2.5
 41
1.0
 50
0.0
 71
     0
 42
2.5
  3
txt.shx
  4

  0
ENDTAB
  0
TABLE
  2
VIEW
  5
6
330
0
100
AcDbSymbolTable
 70
     0
  0
ENDTAB
  0
TABLE
  2
UCS
  5
7
330
0
100
AcDbSymbolTable
 70
     0
  0
ENDTAB
  0
TABLE
  2
APPID
  5
9
330
0
100
AcDbSymbolTable
 70
     1
  0
APPID
  5
12
330
9
100
AcDbSymbolTableRecord
100
AcDbRegAppTableRecord
  2
ACAD
 70
     0
  0
ENDTAB
  0
TABLE
  2
DIMSTYLE
  5
A
330
0
100
AcDbSymbolTable
 70
     3
100
AcDbDimStyleTable
 71
     1
340
27
  0
DIMSTYLE
105
27
330
A
100
AcDbSymbolTableRecord
100
AcDbDimStyleTableRecord
  2
ISO-25
 70
     0
 41
5.0
 42
2.0
 43
3.75
 44
5.0
 73
     0
 74
     0
 77
     1
 78
     8
140
6.0
141
2.5
143
0.1
147
3.0
171
     3
172
     1
176
     7
177
     7
271
     2
272
     2
274
     3
283
     0
284
     8
340
11
371
     9
372
     9
  0
DIMSTYLE
105
AC
330
A
100
AcDbSymbolTableRecord
100
AcDbDimStyleTableRecord
  2
JIS
 70
     0
 41
2.5
 42
1.0
 43
7.0
 44
1.0
 73
     0
 74
     0
 77
     1
 78
     8
140
2.5
141
0.0
143
0.0394
147
0.0
172
     1
174
     1
175
     1
340
11
  0
DIMSTYLE
105
61DD
330
A
100
AcDbSymbolTableRecord
100
AcDbDimStyleTableRecord
  2
ｺﾋﾟｰ - ISO-25
 70
     0
 41
2.5
 42
0.625
 43
3.75
 44
1.25
 73
     0
 74
     0
 77
     1
 78
     8
140
2.5
141
2.5
143
0.03937007874016
147
0.625
171
     3
172
     1
271
     2
272
     2
274
     3
283
     0
284
     8
340
11
343
61D8
  0
ENDTAB
  0
TABLE
  2
BLOCK_RECORD
  5
1
330
0
100
AcDbSymbolTable
 70
    15
  0
BLOCK_RECORD
  5
1F
330
1
100
AcDbSymbolTableRecord
100
AcDbBlockTableRecord
  2
*Model_Space
340
22
  0
BLOCK_RECORD
  5
1B
330
1
100
AcDbSymbolTableRecord
100
AcDbBlockTableRecord
  2
*Paper_Space
340
1E
  0
BLOCK_RECORD
  5
23
330
1
100
AcDbSymbolTableRecord
100
AcDbBlockTableRecord
  2
*Paper_Space0
340
26
  0
BLOCK_RECORD
  5
61D8
330
1
100
AcDbSymbolTableRecord
100
AcDbBlockTableRecord
  2
_Dot
340
0
  0
ENDTAB
  0
ENDSEC
  0
SECTION
  2
BLOCKS
  0
BLOCK
  5
20
330
1F
100
AcDbEntity
  8
0
100
AcDbBlockBegin
  2
*Model_Space
 70
     0
 10
0.0
 20
0.0
 30
0.0
  3
*Model_Space
  1

  0
ENDBLK
  5
21
330
1F
100
AcDbEntity
  8
0
100
AcDbBlockEnd
  0
BLOCK
  5
1C
330
1B
100
AcDbEntity
 67
     1
  8
0
100
AcDbBlockBegin
  2
*Paper_Space
 70
     0
 10
0.0
 20
0.0
 30
0.0
  3
*Paper_Space
  1

  0
ENDBLK
  5
1D
330
1B
100
AcDbEntity
 67
     1
  8
0
100
AcDbBlockEnd
  0
BLOCK
  5
24
330
23
100
AcDbEntity
  8
0
100
AcDbBlockBegin
  2
*Paper_Space0
 70
     0
 10
0.0
 20
0.0
 30
0.0
  3
*Paper_Space0
  1

  0
VIEWPORT
  5
922
330
23
100
AcDbEntity
  8
0
100
AcDbViewport
 10
0.0
 20
0.0
 30
0.0
 40
0.0
 41
0.0
 69
     0
 12
0.0
 22
0.0
 13
0.0
 23
0.0
 14
10.0
 24
10.0
 15
10.0
 25
10.0
 16
0.0
 26
0.0
 36
1.0
 17
0.0
 27
0.0
 37
0.0
 42
50.0
 43
0.0
 44
0.0
 45
0.0
 50
0.0
 51
0.0
 72
   100
 90
    32800
  1

281
     0
 71
     1
 74
     0
110
0.0
120
0.0
130
0.0
111
1.0
121
0.0
131
0.0
112
0.0
122
1.0
132
0.0
 79
     0
146
0.0
  0
VIEWPORT
  5
924
330
23
100
AcDbEntity
  8
0
100
AcDbViewport
 10
0.0
 20
0.0
 30
0.0
 40
0.0
 41
0.0
 69
     0
 12
8199.401833840978
 22
6162.095030619208
 13
0.0
 23
0.0
 14
10.0
 24
10.0
 15
10.0
 25
10.0
 16
0.0
 26
0.0
 36
1.0
 17
0.0
 27
0.0
 37
0.0
 42
50.0
 43
0.0
 44
0.0
 45
12844.48115925182
 50
0.0
 51
0.0
 72
   100
 90
    32864
  1

281
     0
 71
     1
 74
     0
110
0.0
120
0.0
130
0.0
111
1.0
121
0.0
131
0.0
112
0.0
122
1.0
132
0.0
 79
     0
146
0.0
  0
ENDBLK
  5
25
330
23
100
AcDbEntity
  8
0
100
AcDbBlockEnd
  0
BLOCK
  5
61DB
330
61D8
100
AcDbEntity
  8
0
100
AcDbBlockBegin
  2
_Dot
 70
     0
 10
0.0
 20
0.0
 30
0.0
  3
_Dot
  1

  0
LWPOLYLINE
  5
61D9
330
61D8
100
AcDbEntity
  8
0
 62
     0
100
AcDbPolyline
 90
        2
 70
     1
 43
0.5
 10
-0.25
 20
0.0
 42
1.0
 10
0.25
 20
0.0
 42
1.0
  0
LINE
  5
61DA
330
61D8
100
AcDbEntity
  8
0
 62
     0
370
    -2
100
AcDbLine
 10
-0.5
 20
0.0
 30
0.0
 11
-1.0
 21
0.0
 31
0.0
  0
ENDBLK
  5
61DC
330
61D8
100
AcDbEntity
  8
0
100
AcDbBlockEnd
  0
ENDSEC
  0
SECTION
  2
ENTITIES
  0
LINE
  5
60DA
330
1F
100
AcDbEntity
  8
２
 62
     0
370
    20
100
AcDbLine
 10
-113.6069841392893
 20
817.5308658634676
 30
0.0
 11
682.3930158607106
 21
817.5308658634676
 31
0.0
  0
LINE
  5
60DB
330
1F
100
AcDbEntity
  8
２
 62
     0
 48
25.0
100
AcDbLine
 10
-113.6069841392893
 20
837.5308658634676
 30
0.0
 11
682.3930158607106
 21
837.5308658634676
 31
0.0
  0
LINE
  5
60DC
330
1F
100
AcDbEntity
  8
２
 62
     0
 48
25.0
100
AcDbLine
 10
-113.6069841392893
 20
837.5308658634676
 30
0.0
 11
682.3930158607106
 21
837.5308658634676
 31
0.0
  0
LINE
  5
60DD
330
1F
100
AcDbEntity
  8
0
 62
     0
 48
25.0
100
AcDbLine
 10
279.1215549150597
 20
837.5308658634676
 30
0.0
 11
318.4215549150597
 21
837.5308658634676
 31
0.0
  0
LINE
  5
60DE
330
1F
100
AcDbEntity
  8
２
 62
     0
370
    20
100
AcDbLine
 10
682.3930158607106
 20
817.5308658634676
 30
0.0
 11
-67.60698413928935
 21
817.5308658634678
 31
0.0
  0
LINE
  5
60DF
330
1F
100
AcDbEntity
  8
１
 62
     0
 48
25.0
100
AcDbLine
 10
-103.8208647361605
 20
827.5308658634676
 30
0.0
 11
173.6637676806376
 21
827.5308658634671
 31
0.0
  0
LINE
  5
60E0
330
1F
100
AcDbEntity
  8
１
 62
     0
 48
25.0
100
AcDbLine
 10
173.6637676806376
 20
822.5308658634673
 30
0.0
 11
-103.8208647361605
 21
822.5308658634672
 31
0.0
  0
LINE
  5
60E1
330
1F
100
AcDbEntity
  8
１
 62
     0
 48
25.0
100
AcDbLine
 10
173.6637676806376
 20
832.5308658634677
 30
0.0
 11
-103.8208647361605
 21
832.5308658634677
 31
0.0
  0
LINE
  5
60E2
330
1F
100
AcDbEntity
  8
0
 62
     0
100
AcDbLine
 10
-67.60698413928935
 20
817.5308658634676
 30
0.0
 11
-113.6069841392893
 21
817.5308658634676
 31
0.0
  0
LINE
  5
60E3
330
1F
100
AcDbEntity
  8
２
 62
     0
 48
25.0
100
AcDbLine
 10
-107.8208647361605
 20
837.5308658634676
 30
0.0
 11
-107.8208647361605
 21
817.5308658634676
 31
0.0
  0
LINE
  5
60E4
330
1F
100
AcDbEntity
  8
２
 62
     0
 48
25.0
100
AcDbLine
 10
-113.6069841392893
 20
817.5308658634676
 30
0.0
 11
-117.6069841392893
 21
817.5308658634676
 31
0.0
  0
LINE
  5
60E5
330
1F
100
AcDbEntity
  8
２
 62
     0
 48
25.0
100
AcDbLine
 10
-117.6069841392893
 20
817.6093089910487
 30
0.0
 11
-117.6069841392893
 21
817.5308658634676
 31
0.0
  0
LINE
  5
60E6
330
1F
100
AcDbEntity
  8
0
 62
     0
 48
25.0
100
AcDbLine
 10
-113.6069841392893
 20
837.5308658634676
 30
0.0
 11
-107.8208647361605
 21
837.5308658634676
 31
0.0
  0
MTEXT
  5
60E7
330
1F
100
AcDbEntity
  8
２
 62
     0
 48
25.0
100
AcDbMText
 10
-112.2139241392893
 20
827.5308658634678
 30
0.0
 40
4.5
 41
9.78612
 71
     5
 72
     5
  1
記\P事
 73
     1
 44
1.0
  0
LINE
  5
60E8
330
1F
100
AcDbEntity
  8
２
 62
     0
 48
25.0
100
AcDbLine
 10
-113.6069841392893
 20
837.5308658634676
 30
0.0
 11
-117.6069841392893
 21
837.5308658634676
 31
0.0
  0
LINE
  5
60E9
330
1F
100
AcDbEntity
  8
１
 62
     0
 48
25.0
100
AcDbLine
 10
-103.8208647361605
 20
822.5308658634672
 30
0.0
 11
-107.8208647361605
 21
822.5308658634672
 31
0.0
  0
LINE
  5
60EA
330
1F
100
AcDbEntity
  8
１
 62
     0
 48
25.0
100
AcDbLine
 10
-103.8208647361605
 20
827.5308658634676
 30
0.0
 11
-107.8208647361605
 21
827.5308658634676
 31
0.0
  0
LINE
  5
60EB
330
1F
100
AcDbEntity
  8
１
 62
     0
 48
25.0
100
AcDbLine
 10
-103.8208647361605
 20
832.5308658634677
 30
0.0
 11
-107.8208647361605
 21
832.5308658634677
 31
0.0
  0
LINE
  5
60EC
330
1F
100
AcDbEntity
  8
２
 62
     0
 48
25.0
100
AcDbLine
 10
173.6637676806376
 20
837.5308658634676
 30
0.0
 11
279.1215549150597
 21
837.5308658634676
 31
0.0
  0
LINE
  5
60ED
330
1F
100
AcDbEntity
  8
１
 62
     0
 48
25.0
100
AcDbLine
 10
173.6637676806376
 20
827.5308658634676
 30
0.0
 11
279.1215549150597
 21
827.5308658634676
 31
0.0
  0
MTEXT
  5
60EE
330
1F
100
AcDbEntity
  8
２
 62
     0
 48
25.0
100
AcDbMText
 10
193.3117526806377
 20
822.5308658634677
 30
0.0
 40
6.0
 41
39.296
 71
     5
 72
     5
  1
作図者
 73
     1
 44
1.0
  0
MTEXT
  5
60EF
330
1F
100
AcDbEntity
  8
２
 62
     0
 48
25.0
100
AcDbMText
 10
194.0347626806376
 20
832.5308658634677
 30
0.0
 40
6.0
 41
40.742
 71
     5
 72
     5
  1
作図日
 73
     1
 44
1.0
  0
LINE
  5
60F0
330
1F
100
AcDbEntity
  8
２
 62
     0
 48
25.0
100
AcDbLine
 10
173.6637676806376
 20
827.5308658634671
 30
0.0
 11
173.6637676806376
 21
817.5308658634676
 31
0.0
  0
LINE
  5
60F1
330
1F
100
AcDbEntity
  8
２
 62
     0
 48
25.0
100
AcDbLine
 10
173.6637676806376
 20
837.5308658634676
 30
0.0
 11
173.6637676806376
 21
817.5308658634676
 31
0.0
  0
LINE
  5
60F2
330
1F
100
AcDbEntity
  8
0
 62
     0
 48
25.0
100
AcDbLine
 10
173.6637676806376
 20
837.5308658634676
 30
0.0
 11
173.6637676806376
 21
827.5308658634676
 31
0.0
  0
LINE
  5
60F3
330
1F
100
AcDbEntity
  8
２
 62
     0
 48
25.0
100
AcDbLine
 10
212.9597354275438
 20
837.5308658634676
 30
0.0
 11
212.9597354275438
 21
817.5308658634676
 31
0.0
  0
LINE
  5
60F6
330
1F
100
AcDbEntity
  8
２
 62
     0
 48
25.0
100
AcDbLine
 10
279.1215549150597
 20
837.5308658634677
 30
0.0
 11
279.1215549150597
 21
817.5308658634678
 31
0.0
  0
LINE
  5
60F7
330
1F
100
AcDbEntity
  8
１
 62
     0
 48
25.0
100
AcDbLine
 10
318.4215549150597
 20
827.5308658634676
 30
0.0
 11
528.649591227999
 21
827.5308658634676
 31
0.0
  0
LINE
  5
60F8
330
1F
100
AcDbEntity
  8
0
 62
     0
 48
25.0
100
AcDbLine
 10
341.3965544355929
 20
837.5308658634676
 30
0.0
 11
460.2880544355928
 21
837.5308658634676
 31
0.0
  0
MTEXT
  5
60F9
330
1F
100
AcDbEntity
  8
２
 62
     0
 48
25.0
100
AcDbMText
 10
338.0715549150596
 20
822.5308658634677
 30
0.0
 40
6.0
 41
39.29999999999999
 71
     5
 72
     5
  1
図　　名
 73
     1
 44
1.0
  0
MTEXT
  5
60FA
330
1F
100
AcDbEntity
  8
２
 62
     0
 48
25.0
100
AcDbMText
 10
338.0715549150596
 20
832.5308658634677
 30
0.0
 40
6.0
 41
39.29999999999999
 71
     5
 72
     5
  1
物件名称
 73
     1
 44
1.0
  0
LINE
  5
60FB
330
1F
100
AcDbEntity
  8
0
 62
     0
 48
25.0
100
AcDbLine
 10
318.4215549150597
 20
837.5308658634676
 30
0.0
 11
357.7215549150596
 21
837.5308658634676
 31
0.0
  0
MTEXT
  5
60FC
330
1F
100
AcDbEntity
  8
２
 62
     0
 48
25.0
100
AcDbMText
 10
298.2565124150596
 20
827.5308658634678
 30
0.0
 40
4.5
 41
32.06989999999999
 71
     5
 72
     5
  1
Ｓ＝1/2
 73
     1
 44
1.0
  0
LINE
  5
60FD
330
1F
100
AcDbEntity
  8
２
 62
     0
 48
25.0
100
AcDbLine
 10
318.4215549150597
 20
837.5308658634676
 30
0.0
 11
318.4215549150597
 21
817.5308658634676
 31
0.0
  0
LINE
  5
60FE
330
1F
100
AcDbEntity
  8
0
 62
     0
 48
25.0
100
AcDbLine
 10
318.4215549150597
 20
837.5308658634676
 30
0.0
 11
318.4215549150597
 21
817.5308658634676
 31
0.0
  0
LINE
  5
60FF
330
1F
100
AcDbEntity
  8
２
 62
     0
 48
25.0
100
AcDbLine
 10
357.7215549150596
 20
837.5308658634676
 30
0.0
 11
357.7215549150596
 21
817.5308658634676
 31
0.0
  0
LINE
  5
6100
330
1F
100
AcDbEntity
  8
２
 62
     0
 48
25.0
100
AcDbLine
 10
528.649591227999
 20
837.5308658634676
 30
0.0
 11
528.649591227999
 21
817.5308658634676
 31
0.0
  0
MTEXT
  5
6101
330
1F
100
AcDbEntity
  8
２
 62
     0
 48
25.0
100
AcDbMText
 10
626.0641145896142
 20
827.5308658634678
 30
0.0
 40
6.0
 41
103.21335
 71
     5
 72
     5
  1
株式会社{\H1.25x; アルティマ}
 73
     1
 44
1.0
  0
ARC
  5
6102
330
1F
100
AcDbEntity
  8
Object
 62
     0
 48
0.3
100
AcDbCircle
 10
568.3681132541858
 20
824.3086653690383
 30
0.0
 40
4.049999999999999
100
AcDbArc
 50
180.0
 51
257.3448222610501
  0
LINE
  5
6103
102
{ACAD_REACTORS
330
6105
102
}
330
1F
100
AcDbEntity
  8
Object
 62
     0
 48
0.3
100
AcDbLine
 10
546.6185729416677
 20
834.8220867758399
 30
0.0
 11
549.3185729416677
 21
834.8220867758399
 31
0.0
  0
ARC
  5
6104
102
{ACAD_REACTORS
330
6105
102
}
330
1F
100
AcDbEntity
  8
Object
 62
     0
 48
0.3
100
AcDbCircle
 10
545.2685729416677
 20
824.29208677584
 30
0.0
 40
4.049999999999999
100
AcDbArc
 50
180.0
 51
0.0
  0
HATCH
  5
6105
330
1F
100
AcDbEntity
  8
Object
 62
     0
 48
0.3
100
AcDbHatch
 10
0.0
 20
0.0
 30
0.0
210
0.0
220
0.0
230
1.0
  2
ANSI31
 70
     0
 71
     1
 91
        1
 92
        1
 93
        8
 72
     1
 10
543.9185729416676
 20
834.8220867758399
 11
541.2185729416676
 21
834.8220867758399
 72
     1
 10
541.2185729416676
 20
834.8220867758399
 11
541.2185729416676
 21
824.29208677584
 72
     2
 10
545.2685729416677
 20
824.29208677584
 40
4.049999999999999
 50
180.0
 51
360.0
 73
     1
 72
     1
 10
549.3185729416677
 20
824.29208677584
 11
549.3185729416677
 21
834.8220867758399
 72
     1
 10
549.3185729416677
 20
834.8220867758399
 11
546.6185729416677
 21
834.8220867758399
 72
     1
 10
546.6185729416677
 20
834.8220867758399
 11
546.6185729416677
 21
824.29208677584
 72
     2
 10
545.2685729416677
 20
824.29208677584
 40
1.35
 50
360.0
 51
540.0
 73
     0
 72
     1
 10
543.9185729416676
 20
824.29208677584
 11
543.9185729416676
 21
834.8220867758399
 97
        8
330
610B
330
6106
330
6104
330
610D
330
6103
330
6108
330
6109
330
6107
 75
     0
 76
     1
 52
0.0
 41
0.01125
 77
     0
 78
     1
 53
45.0
 43
388.6807673218097
 44
717.6334720785245
 45
-0.025256970340507
 46
0.025256970340507
 79
     0
 98
        1
 10
388.6807673218097
 20
717.6334720785245
  0
LINE
  5
6106
102
{ACAD_REACTORS
330
6105
102
}
330
1F
100
AcDbEntity
  8
Object
 62
     0
 48
0.3
100
AcDbLine
 10
541.2185729416676
 20
824.29208677584
 30
0.0
 11
541.2185729416676
 21
834.8220867758399
 31
0.0
  0
LINE
  5
6107
102
{ACAD_REACTORS
330
6105
102
}
330
1F
100
AcDbEntity
  8
Object
 62
     0
 48
0.3
100
AcDbLine
 10
543.9185729416676
 20
834.8220867758399
 30
0.0
 11
543.9185729416676
 21
824.29208677584
 31
0.0
  0
LINE
  5
6108
102
{ACAD_REACTORS
330
6105
102
}
330
1F
100
AcDbEntity
  8
Object
 62
     0
 48
0.3
100
AcDbLine
 10
546.6185729416677
 20
834.8220867758399
 30
0.0
 11
546.6185729416677
 21
824.29208677584
 31
0.0
  0
ARC
  5
6109
102
{ACAD_REACTORS
330
6105
102
}
330
1F
100
AcDbEntity
  8
Object
 62
     0
 48
0.3
100
AcDbCircle
 10
545.2685729416677
 20
824.29208677584
 30
0.0
 40
1.35
100
AcDbArc
 50
180.0
 51
0.0
  0
LINE
  5
610A
330
1F
100
AcDbEntity
  8
Object
 62
     0
 48
0.3
100
AcDbLine
 10
541.2185729416676
 20
834.8220867758399
 30
0.0
 11
543.9185729416676
 21
834.8220867758399
 31
0.0
  0
LINE
  5
610B
102
{ACAD_REACTORS
330
6105
102
}
330
1F
100
AcDbEntity
  8
Object
 62
     0
 48
0.3
100
AcDbLine
 10
543.9185729416676
 20
834.8220867758399
 30
0.0
 11
541.2185729416676
 21
834.8220867758399
 31
0.0
  0
LINE
  5
610C
102
{ACAD_REACTORS
330
610F
102
}
330
1F
100
AcDbEntity
  8
Object
 62
     0
 48
0.3
100
AcDbLine
 10
556.5185729416677
 20
834.8220867758399
 30
0.0
 11
556.5185729416677
 21
822.9420867758401
 31
0.0
  0
LINE
  5
610D
102
{ACAD_REACTORS
330
6105
102
}
330
1F
100
AcDbEntity
  8
Object
 62
     0
 48
0.3
100
AcDbLine
 10
549.3185729416677
 20
834.8220867758399
 30
0.0
 11
549.3185729416677
 21
824.29208677584
 31
0.0
  0
LINE
  5
610E
102
{ACAD_REACTORS
330
610F
102
}
330
1F
100
AcDbEntity
  8
Object
 62
     0
 48
0.3
100
AcDbLine
 10
553.8185729416677
 20
834.8220867758399
 30
0.0
 11
553.8185729416677
 21
820.24208677584
 31
0.0
  0
HATCH
  5
610F
330
1F
100
AcDbEntity
  8
Object
 62
     0
 48
0.3
100
AcDbHatch
 10
0.0
 20
0.0
 30
0.0
210
0.0
220
0.0
230
1.0
  2
ANSI31
 70
     0
 71
     1
 91
        1
 92
        1
 93
        6
 72
     1
 10
553.8185729416677
 20
834.8220867758399
 11
556.5185729416677
 21
834.8220867758399
 72
     1
 10
556.5185729416677
 20
834.8220867758399
 11
556.5185729416677
 21
822.9420867758401
 72
     1
 10
556.5185729416677
 20
822.9420867758401
 11
561.9185729416677
 21
822.9420867758401
 72
     1
 10
561.9185729416677
 20
822.9420867758401
 11
561.9185729416677
 21
820.24208677584
 72
     1
 10
561.9185729416677
 20
820.24208677584
 11
553.8185729416677
 21
820.24208677584
 72
     1
 10
553.8185729416677
 20
820.24208677584
 11
553.8185729416677
 21
834.8220867758399
 97
        6
330
6113
330
610C
330
6112
330
6111
330
6110
330
610E
 75
     0
 76
     1
 52
0.0
 41
0.01125
 77
     0
 78
     1
 53
45.0
 43
388.6807673218097
 44
717.6334720785245
 45
-0.025256970340507
 46
0.025256970340507
 79
     0
 98
        1
 10
388.6807673218097
 20
717.6334720785245
  0
LINE
  5
6110
102
{ACAD_REACTORS
330
610F
102
}
330
1F
100
AcDbEntity
  8
Object
 62
     0
 48
0.3
100
AcDbLine
 10
553.8185729416677
 20
820.24208677584
 30
0.0
 11
561.9185729416677
 21
820.24208677584
 31
0.0
  0
LINE
  5
6111
102
{ACAD_REACTORS
330
610F
102
}
330
1F
100
AcDbEntity
  8
Object
 62
     0
 48
0.3
100
AcDbLine
 10
561.9185729416677
 20
820.24208677584
 30
0.0
 11
561.9185729416677
 21
822.9420867758401
 31
0.0
  0
LINE
  5
6112
102
{ACAD_REACTORS
330
610F
102
}
330
1F
100
AcDbEntity
  8
Object
 62
     0
 48
0.3
100
AcDbLine
 10
561.9185729416677
 20
822.9420867758401
 30
0.0
 11
556.5185729416677
 21
822.9420867758401
 31
0.0
  0
LINE
  5
6113
102
{ACAD_REACTORS
330
610F
102
}
330
1F
100
AcDbEntity
  8
Object
 62
     0
 48
0.3
100
AcDbLine
 10
553.8185729416677
 20
834.8220867758399
 30
0.0
 11
556.5185729416677
 21
834.8220867758399
 31
0.0
  0
LINE
  5
6114
330
1F
100
AcDbEntity
  8
Object
 62
     0
 48
0.3
100
AcDbLine
 10
572.4181132541859
 20
830.7720867758398
 30
0.0
 11
572.4181132541859
 21
829.2123630550754
 31
0.0
  0
LINE
  5
6115
330
1F
100
AcDbEntity
  8
Object
 62
     0
 48
0.3
100
AcDbLine
 10
567.0181132541858
 20
824.3086653690383
 30
0.0
 11
567.0181132541858
 21
830.7720867758398
 31
0.0
  0
LINE
  5
6116
330
1F
100
AcDbEntity
  8
Object
 62
     0
 48
0.3
100
AcDbLine
 10
564.3181132541858
 20
824.1537331999293
 30
0.0
 11
564.3181132541858
 21
830.7720867758398
 31
0.0
  0
LINE
  5
6117
330
1F
100
AcDbEntity
  8
Object
 62
     0
 48
0.3
100
AcDbLine
 10
569.7181132541859
 20
829.2123630550754
 30
0.0
 11
569.7181132541859
 21
830.7720867758398
 31
0.0
  0
LINE
  5
6118
330
1F
100
AcDbEntity
  8
Object
 62
     0
 48
0.3
100
AcDbLine
 10
567.0181132541858
 20
824.3086653690383
 30
0.0
 11
567.0181132541858
 21
830.7720867758398
 31
0.0
  0
HATCH
  5
6119
330
1F
100
AcDbEntity
  8
Object
 62
     0
 48
0.3
100
AcDbHatch
 10
0.0
 20
0.0
 30
0.0
210
0.0
220
0.0
230
1.0
  2
ANSI31
 70
     0
 71
     0
 91
        1
 92
        7
 72
     1
 73
     1
 93
       17
 10
567.0181132541858
 20
824.3086653690385
 42
0.0
 10
567.0181132541858
 20
830.77208677584
 42
-1.0
 10
569.7181132541859
 20
830.77208677584
 42
0.0
 10
569.7181132541859
 20
829.2123630550756
 42
0.0
 10
572.4181132541859
 20
829.2123630550756
 42
0.0
 10
572.4181132541859
 20
830.77208677584
 42
1.0
 10
564.3181132541858
 20
830.77208677584
 42
0.0
 10
564.3181132541858
 20
824.3086653690385
 42
0.3509045778193816
 10
567.4808271837385
 20
820.3570551365903
 42
0.4071999015487891
 10
569.7181132541859
 20
821.6727720151556
 42
0.0
 10
569.7181132541859
 20
820.24208677584
 42
0.0
 10
572.4181132541859
 20
820.24208677584
 42
0.0
 10
572.4181132541859
 20
827.58962883278
 42
0.0
 10
568.371917058751
 20
827.58962883278
 42
0.0
 10
568.3719170587507
 20
824.8896288327799
 42
0.0
 10
569.7181132541859
 20
824.8896288327799
 42
0.0
 10
569.7181132541859
 20
824.3086653690385
 42
-1.0
 97
        0
 75
     0
 76
     1
 52
0.0
 41
0.01125
 77
     0
 78
     1
 53
45.0
 43
388.6807673218097
 44
717.6334720785245
 45
-0.025256970340507
 46
0.025256970340507
 79
     0
 47
0.0407053698821989
 98
        1
 10
568.0942869891232
 20
822.1037355012922
  0
LINE
  5
611A
330
1F
100
AcDbEntity
  8
Object
 62
     0
 48
0.3
100
AcDbLine
 10
569.7181132541859
 20
829.2123630550754
 30
0.0
 11
572.4181132541859
 21
829.2123630550754
 31
0.0
  0
LINE
  5
611B
330
1F
100
AcDbEntity
  8
Object
 62
     0
 48
0.3
100
AcDbLine
 10
572.4181132541859
 20
827.5896288327798
 30
0.0
 11
568.371917058751
 21
827.5896288327798
 31
0.0
  0
LINE
  5
611C
330
1F
100
AcDbEntity
  8
Object
 62
     0
 48
0.3
100
AcDbLine
 10
569.7181132541859
 20
820.24208677584
 30
0.0
 11
572.4181132541859
 21
820.24208677584
 31
0.0
  0
LINE
  5
611D
330
1F
100
AcDbEntity
  8
Object
 62
     0
 48
0.3
100
AcDbLine
 10
572.4181132541859
 20
820.24208677584
 30
0.0
 11
569.7181132541859
 21
820.24208677584
 31
0.0
  0
LINE
  5
611E
330
1F
100
AcDbEntity
  8
Object
 62
     0
 48
0.3
100
AcDbLine
 10
568.371917058751
 20
827.5896288327798
 30
0.0
 11
568.371917058751
 21
824.8896288327799
 31
0.0
  0
LINE
  5
611F
330
1F
100
AcDbEntity
  8
Object
 62
     0
 48
0.3
100
AcDbLine
 10
568.371917058751
 20
824.8896288327799
 30
0.0
 11
569.7181132541859
 21
824.8896288327799
 31
0.0
  0
LINE
  5
6120
330
1F
100
AcDbEntity
  8
Object
 62
     0
 48
0.3
100
AcDbLine
 10
569.7181132541859
 20
824.3086653690383
 30
0.0
 11
569.7181132541859
 21
824.8896288327799
 31
0.0
  0
LINE
  5
6121
330
1F
100
AcDbEntity
  8
Object
 62
     0
 48
0.3
100
AcDbLine
 10
569.7181132541859
 20
824.8896288327799
 30
0.0
 11
569.7181132541859
 21
824.2651066341716
 31
0.0
  0
LINE
  5
6122
330
1F
100
AcDbEntity
  8
Object
 62
     0
 48
0.3
100
AcDbLine
 10
568.371917058751
 20
824.8896288327799
 30
0.0
 11
569.7181132541859
 21
824.8896288327799
 31
0.0
  0
LINE
  5
6123
330
1F
100
AcDbEntity
  8
Object
 62
     0
 48
0.3
100
AcDbLine
 10
569.7181132541859
 20
824.8896288327799
 30
0.0
 11
569.7181132541859
 21
824.3086653690383
 31
0.0
  0
ARC
  5
6124
330
1F
100
AcDbEntity
  8
Object
 62
     0
 48
0.3
100
AcDbCircle
 10
568.3681132541858
 20
824.3086653690383
 30
0.0
 40
1.35
100
AcDbArc
 50
180.0
 51
0.0
  0
ARC
  5
6125
330
1F
100
AcDbEntity
  8
Object
 62
     0
 48
0.3
100
AcDbCircle
 10
567.9256270136168
 20
822.1607376065174
 30
0.0
 40
1.857718315833298
100
AcDbArc
 50
256.1468978562146
 51
344.7714912032799
  0
LINE
  5
6126
330
1F
100
AcDbEntity
  8
Object
 62
     0
 48
0.3
100
AcDbLine
 10
569.7181132541859
 20
821.672772015151
 30
0.0
 11
569.7181132541859
 21
820.24208677584
 31
0.0
  0
LINE
  5
6127
330
1F
100
AcDbEntity
  8
Object
 62
     0
 48
0.3
100
AcDbLine
 10
572.4181132541859
 20
827.5896288327794
 30
0.0
 11
572.4181132541859
 21
820.24208677584
 31
0.0
  0
ARC
  5
6128
330
1F
100
AcDbEntity
  8
Object
 62
     0
 48
0.3
100
AcDbCircle
 10
568.3681132541858
 20
830.7720867758398
 30
0.0
 40
4.049999999999999
100
AcDbArc
 50
0.0
 51
180.0
  0
ARC
  5
6129
330
1F
100
AcDbEntity
  8
Object
 62
     0
 48
0.3
100
AcDbCircle
 10
568.3681132541858
 20
830.7720867758398
 30
0.0
 40
1.35
100
AcDbArc
 50
0.0
 51
180.0
  0
LINE
  5
612A
330
1F
100
AcDbEntity
  8
２
 62
     0
 48
25.0
100
AcDbLine
 10
-117.6069841392893
 20
817.5308658634676
 30
0.0
 11
682.3930158607106
 21
817.5308658634675
 31
0.0
  0
LINE
  5
61A6
330
1F
100
AcDbEntity
  8
２
 62
     0
 48
25.0
100
AcDbLine
 10
-117.6069841392893
 20
817.5308658634675
 30
0.0
 11
-117.6069841392893
 21
1367.530865863467
 31
0.0
  0
LINE
  5
61A7
330
1F
100
AcDbEntity
  8
２
 62
     0
 48
25.0
100
AcDbLine
 10
-117.6069841392893
 20
1367.530865863467
 30
0.0
 11
682.3930158607105
 21
1367.530865863467
 31
0.0
  0
LINE
  5
61A8
330
1F
100
AcDbEntity
  8
２
 62
     0
 48
25.0
100
AcDbLine
 10
682.3930158607105
 20
1367.530865863467
 30
0.0
 11
682.3930158607106
 21
817.5308658634675
 31
0.0
  0
MTEXT
  5
6487
330
1F
100
AcDbEntity
  8
４
 62
     0
 48
0.5
100
AcDbMText
 10
171.1613615566535
 20
820.0308658634675
 30
0.0
 40
2.5
 41
7.0048
 71
     5
 72
     5
  1
6
 73
     1
 44
1.0
  0
MTEXT
  5
805E
330
1F
100
AcDbEntity
  8
0
 48
0.5
100
AcDbMText
 10
29.16955816236122
 20
1035.5359660895
 30
0.0
 40
6.0
 41
20.438
 71
     9
 72
     1
  1

 73
     1
 44
1.0
  0
MTEXT
  5
8061
330
1F
100
AcDbEntity
  8
0
 48
0.5
100
AcDbMText
 10
18.39555542707603
 20
1011.50872061242
 30
0.0
 40
6.0
 41
20.438
 71
     9
 72
     1
  1

 73
     1
 44
1.0
  0
MTEXT
  5
9B28
330
1F
100
AcDbEntity
  8
0
 62
     0
 48
0.5
100
AcDbMText
 10
363.1564859395607
 20
825.6180777885083
 30
0.0
 40
6.0
 41
0.0
 71
     1
 72
     5
  1
%%c6・%%c5取付け部
 73
     1
 44
1.0
  0
LINE
  5
9B86
330
1F
100
AcDbEntity
  8
0
 62
     0
 48
0.5
100
AcDbLine
 10
43.67086002317773
 20
997.6380979903892
 30
0.0
 11
43.67086002317773
 21
1107.638097990389
 31
0.0
  0
LINE
  5
9B87
330
1F
100
AcDbEntity
  8
0
 62
     0
 48
0.5
100
AcDbLine
 10
43.67086002317773
 20
1107.638097990389
 30
0.0
 11
193.6708600231777
 21
1107.638097990389
 31
0.0
  0
LINE
  5
9B88
330
1F
100
AcDbEntity
  8
0
 62
     0
 48
0.5
100
AcDbLine
 10
193.6708600231777
 20
1107.638097990389
 30
0.0
 11
193.6708600231777
 21
997.6380979903892
 31
0.0
  0
LINE
  5
9B89
330
1F
100
AcDbEntity
  8
0
 62
     0
 48
0.5
100
AcDbLine
 10
193.6708600231777
 20
1107.638097990389
 30
0.0
 11
343.6708600231777
 21
1107.638097990389
 31
0.0
  0
LINE
  5
9B8A
330
1F
100
AcDbEntity
  8
0
 62
     0
 48
0.5
100
AcDbLine
 10
193.6708600231777
 20
997.6380979903892
 30
0.0
 11
193.6708600231777
 21
1107.638097990389
 31
0.0
  0
LINE
  5
9B8B
330
1F
100
AcDbEntity
  8
0
 62
     0
 48
0.5
100
AcDbLine
 10
343.6708600231777
 20
1107.638097990389
 30
0.0
 11
343.6708600231777
 21
1094.163595568635
 31
0.0
  0
LINE
  5
9B8C
330
1F
100
AcDbEntity
  8
0
 62
     0
 48
0.5
100
AcDbLine
 10
343.6708600231777
 20
1107.638097990389
 30
0.0
 11
493.6708600231777
 21
1107.638097990389
 31
0.0
  0
LINE
  5
9B8D
330
1F
100
AcDbEntity
  8
0
 62
     0
 48
0.5
100
AcDbLine
 10
343.6708600231777
 20
997.6380979903892
 30
0.0
 11
343.6708600231777
 21
1083.599436165629
 31
0.0
  0
LINE
  5
9B8E
330
1F
100
AcDbEntity
  8
0
 62
     0
 48
0.5
100
AcDbLine
 10
343.6708600231777
 20
1107.638097990389
 30
0.0
 11
343.6708600231777
 21
1094.163595568635
 31
0.0
  0
LINE
  5
9B8F
330
1F
100
AcDbEntity
  8
0
 62
     0
 48
0.5
100
AcDbLine
 10
493.6708600231777
 20
1107.638097990389
 30
0.0
 11
493.6708600231776
 21
997.6380979903892
 31
0.0
  0
LINE
  5
9B90
330
1F
100
AcDbEntity
  8
0
 62
     0
 48
0.5
100
AcDbLine
 10
43.67086002317773
 20
1109.238097990389
 30
0.0
 11
193.6708600231777
 21
1109.238097990389
 31
0.0
  0
LINE
  5
9B91
330
1F
100
AcDbEntity
  8
0
 62
     0
 48
0.5
100
AcDbLine
 10
193.6708600231777
 20
1109.238097990389
 30
0.0
 11
343.6708600231777
 21
1109.238097990389
 31
0.0
  0
LINE
  5
9B92
330
1F
100
AcDbEntity
  8
0
 62
     0
 48
0.5
100
AcDbLine
 10
343.6708600231777
 20
1109.238097990389
 30
0.0
 11
493.6708600231777
 21
1109.238097990389
 31
0.0
  0
LINE
  5
9B93
330
1F
100
AcDbEntity
  8
0
 62
     0
 48
0.5
100
AcDbLine
 10
45.27086002317775
 20
997.6380979903892
 30
0.0
 11
45.27086002317775
 21
1107.638097990389
 31
0.0
  0
LINE
  5
9B94
330
1F
100
AcDbEntity
  8
0
 62
     0
 48
0.5
100
AcDbLine
 10
195.2708600231777
 20
1107.638097990389
 30
0.0
 11
195.2708600231776
 21
997.6380979903892
 31
0.0
  0
LINE
  5
9B95
330
1F
100
AcDbEntity
  8
0
 62
     0
 48
0.5
100
AcDbLine
 10
195.2708600231776
 20
997.6380979903892
 30
0.0
 11
195.2708600231776
 21
1107.638097990389
 31
0.0
  0
LINE
  5
9B96
330
1F
100
AcDbEntity
  8
0
 62
     0
 48
0.5
100
AcDbLine
 10
345.2708600231777
 20
1107.638097990389
 30
0.0
 11
345.2708600231777
 21
1094.163595568635
 31
0.0
  0
LINE
  5
9B97
330
1F
100
AcDbEntity
  8
0
 62
     0
 48
0.5
100
AcDbLine
 10
345.2708600231777
 20
997.6380979903892
 30
0.0
 11
345.2708600231777
 21
1083.599436165629
 31
0.0
  0
LINE
  5
9B98
330
1F
100
AcDbEntity
  8
0
 62
     0
 48
0.5
100
AcDbLine
 10
345.2708600231777
 20
1107.638097990389
 30
0.0
 11
345.2708600231777
 21
1094.163595568635
 31
0.0
  0
LINE
  5
9B99
330
1F
100
AcDbEntity
  8
0
 62
     0
 48
0.5
100
AcDbLine
 10
495.2708600231777
 20
1107.638097990389
 30
0.0
 11
495.2708600231776
 21
997.6380979903892
 31
0.0
  0
LINE
  5
9B9A
330
1F
100
AcDbEntity
  8
0
 62
     0
 48
0.5
100
AcDbLine
 10
43.67086002317773
 20
1109.238097990389
 30
0.0
 11
43.67086002317773
 21
1107.638097990389
 31
0.0
  0
LINE
  5
9B9B
330
1F
100
AcDbEntity
  8
0
 62
     0
 48
0.5
100
AcDbLine
 10
493.6708600231777
 20
1109.238097990389
 30
0.0
 11
495.2708600231777
 21
1109.238097990389
 31
0.0
  0
LINE
  5
9B9C
330
1F
100
AcDbEntity
  8
0
 62
     0
 48
0.5
100
AcDbLine
 10
495.2708600231777
 20
1109.238097990389
 30
0.0
 11
495.2708600231777
 21
1107.638097990389
 31
0.0
  0
LINE
  5
9C43
330
1F
100
AcDbEntity
  8
0
 62
     0
 48
0.5
100
AcDbLine
 10
45.27086002317775
 20
1073.842092626788
 30
0.0
 11
62.17086002317762
 21
1073.842092626788
 31
0.0
  0
LINE
  5
9C44
330
1F
100
AcDbEntity
  8
0
 62
     0
 48
0.5
100
AcDbLine
 10
62.17086002317762
 20
1077.642092626788
 30
0.0
 11
45.27086002317775
 21
1077.642092626788
 31
0.0
  0
LINE
  5
9C46
330
1F
100
AcDbEntity
  8
0
 62
     0
 48
0.5
100
AcDbLine
 10
45.27086002317775
 20
1077.642092626788
 30
0.0
 11
45.27086002317775
 21
1073.842092626788
 31
0.0
  0
LINE
  5
9C47
330
1F
100
AcDbEntity
  8
0
 62
     0
 48
0.5
100
AcDbLine
 10
62.27086002317776
 20
1073.942092626788
 30
0.0
 11
62.27086002317776
 21
1077.542092626788
 31
0.0
  0
LINE
  5
9C48
330
1F
100
AcDbEntity
  8
0
 62
     0
 48
0.5
100
AcDbLine
 10
62.27086002317776
 20
1075.742092626788
 30
0.0
 11
62.27086002317776
 21
1076.342092626788
 31
0.0
  0
LINE
  5
9C49
330
1F
100
AcDbEntity
  8
0
 62
     0
 48
0.5
100
AcDbLine
 10
62.17086002317762
 20
1077.642092626788
 30
0.0
 11
62.27086002317776
 21
1077.542092626788
 31
0.0
  0
LINE
  5
9C4A
330
1F
100
AcDbEntity
  8
0
 62
     0
 48
0.5
100
AcDbLine
 10
62.27086002317776
 20
1073.942092626788
 30
0.0
 11
62.17086002317762
 21
1073.842092626788
 31
0.0
  0
LINE
  5
9C4B
330
1F
100
AcDbEntity
  8
0
 62
     0
 48
0.5
100
AcDbLine
 10
62.27086002317776
 20
1076.342092626788
 30
0.0
 11
62.27086002317776
 21
1075.142092626788
 31
0.0
  0
LINE
  5
9C4C
330
1F
100
AcDbEntity
  8
0
 62
     0
 48
0.5
100
AcDbLine
 10
176.7708600231776
 20
1077.642092626788
 30
0.0
 11
193.6708600231777
 21
1077.642092626788
 31
0.0
  0
LINE
  5
9C4D
330
1F
100
AcDbEntity
  8
0
 62
     0
 48
0.5
100
AcDbLine
 10
193.6708600231777
 20
1073.842092626788
 30
0.0
 11
176.7708600231776
 21
1073.842092626788
 31
0.0
  0
LINE
  5
9C4E
330
1F
100
AcDbEntity
  8
0
 62
     0
 48
0.5
100
AcDbLine
 10
62.27086002317776
 20
1076.342092626788
 30
0.0
 11
78.8072768135479
 21
1076.342092626788
 31
0.0
  0
LINE
  5
9C4F
330
1F
100
AcDbEntity
  8
0
 62
     0
 48
0.5
100
AcDbLine
 10
62.27086002317776
 20
1075.142092626788
 30
0.0
 11
78.8072768135479
 21
1075.142092626788
 31
0.0
  0
LINE
  5
9C50
330
1F
100
AcDbEntity
  8
0
 62
     0
 48
0.5
100
AcDbLine
 10
325.0708600231777
 20
1076.342092626788
 30
0.0
 11
308.5344432328075
 21
1076.342092626788
 31
0.0
  0
LINE
  5
9C51
330
1F
100
AcDbEntity
  8
0
 62
     0
 48
0.5
100
AcDbLine
 10
325.0708600231777
 20
1075.142092626788
 30
0.0
 11
308.5344432328075
 21
1075.142092626788
 31
0.0
  0
LINE
  5
9C52
330
1F
100
AcDbEntity
  8
0
 62
     0
 48
0.5
100
AcDbLine
 10
176.6708600231777
 20
1075.742092626788
 30
0.0
 11
176.6708600231777
 21
1076.342092626788
 31
0.0
  0
LINE
  5
9C53
330
1F
100
AcDbEntity
  8
0
 62
     0
 48
0.5
100
AcDbLine
 10
176.6708600231777
 20
1073.942092626788
 30
0.0
 11
176.6708600231777
 21
1077.542092626788
 31
0.0
  0
LINE
  5
9C54
330
1F
100
AcDbEntity
  8
0
 62
     0
 48
0.5
100
AcDbLine
 10
176.6708600231777
 20
1077.542092626788
 30
0.0
 11
176.7708600231776
 21
1077.642092626788
 31
0.0
  0
LINE
  5
9C55
330
1F
100
AcDbEntity
  8
0
 62
     0
 48
0.5
100
AcDbLine
 10
176.6708600231777
 20
1073.942092626788
 30
0.0
 11
176.7708600231776
 21
1073.842092626788
 31
0.0
  0
LINE
  5
9C56
330
1F
100
AcDbEntity
  8
0
 62
     0
 48
0.5
100
AcDbLine
 10
176.6708600231777
 20
1076.342092626788
 30
0.0
 11
176.6708600231777
 21
1075.142092626788
 31
0.0
  0
LINE
  5
9C57
330
1F
100
AcDbEntity
  8
0
 62
     0
 48
0.5
100
AcDbLine
 10
193.6708600231777
 20
1077.642092626788
 30
0.0
 11
193.6708600231777
 21
1073.842092626788
 31
0.0
  0
LINE
  5
9C58
330
1F
100
AcDbEntity
  8
0
 62
     0
 48
0.5
100
AcDbLine
 10
212.1708600231776
 20
1077.642092626788
 30
0.0
 11
195.2708600231776
 21
1077.642092626788
 31
0.0
  0
LINE
  5
9C59
330
1F
100
AcDbEntity
  8
0
 62
     0
 48
0.5
100
AcDbLine
 10
195.2708600231776
 20
1073.842092626788
 30
0.0
 11
212.1708600231776
 21
1073.842092626788
 31
0.0
  0
LINE
  5
9C5A
330
1F
100
AcDbEntity
  8
0
 62
     0
 48
0.5
100
AcDbLine
 10
195.2708600231776
 20
1077.642092626788
 30
0.0
 11
195.2708600231776
 21
1073.842092626788
 31
0.0
  0
LINE
  5
9C5B
330
1F
100
AcDbEntity
  8
0
 62
     0
 48
0.5
100
AcDbLine
 10
362.2708600231777
 20
1075.142092626788
 30
0.0
 11
378.8072768135478
 21
1075.142092626788
 31
0.0
  0
LINE
  5
9C5C
330
1F
100
AcDbEntity
  8
0
 62
     0
 48
0.5
100
AcDbLine
 10
362.2708600231777
 20
1076.342092626788
 30
0.0
 11
378.8072768135478
 21
1076.342092626788
 31
0.0
  0
LINE
  5
9C5D
330
1F
100
AcDbEntity
  8
0
 62
     0
 48
0.5
100
AcDbLine
 10
212.2708600231776
 20
1076.342092626788
 30
0.0
 11
212.2708600231776
 21
1075.142092626788
 31
0.0
  0
LINE
  5
9C5E
330
1F
100
AcDbEntity
  8
0
 62
     0
 48
0.5
100
AcDbLine
 10
212.2708600231776
 20
1073.942092626788
 30
0.0
 11
212.1708600231776
 21
1073.842092626788
 31
0.0
  0
LINE
  5
9C5F
330
1F
100
AcDbEntity
  8
0
 62
     0
 48
0.5
100
AcDbLine
 10
212.1708600231776
 20
1077.642092626788
 30
0.0
 11
212.2708600231776
 21
1077.542092626788
 31
0.0
  0
LINE
  5
9C60
330
1F
100
AcDbEntity
  8
0
 62
     0
 48
0.5
100
AcDbLine
 10
212.2708600231776
 20
1075.742092626788
 30
0.0
 11
212.2708600231776
 21
1076.342092626788
 31
0.0
  0
LINE
  5
9C61
330
1F
100
AcDbEntity
  8
0
 62
     0
 48
0.5
100
AcDbLine
 10
212.2708600231776
 20
1073.942092626788
 30
0.0
 11
212.2708600231776
 21
1077.542092626788
 31
0.0
  0
LINE
  5
9C6C
330
1F
100
AcDbEntity
  8
0
 62
     0
 48
0.5
100
AcDbLine
 10
78.8072768135479
 20
1076.342092626788
 30
0.0
 11
176.6708600231777
 21
1076.342092626788
 31
0.0
  0
LINE
  5
9C6D
330
1F
100
AcDbEntity
  8
0
 62
     0
 48
0.5
100
AcDbLine
 10
78.8072768135479
 20
1075.142092626788
 30
0.0
 11
176.6708600231777
 21
1075.142092626788
 31
0.0
  0
LINE
  5
9C6E
330
1F
100
AcDbEntity
  8
0
 62
     0
 48
0.5
100
AcDbLine
 10
378.8072768135478
 20
1076.342092626788
 30
0.0
 11
476.6708600231778
 21
1076.342092626788
 31
0.0
  0
LINE
  5
9C6F
330
1F
100
AcDbEntity
  8
0
 62
     0
 48
0.5
100
AcDbLine
 10
378.8072768135478
 20
1075.142092626788
 30
0.0
 11
476.6708600231778
 21
1075.142092626788
 31
0.0
  0
ARC
  5
9CC7
330
1F
100
AcDbEntity
  8
0
 62
     0
 48
0.3
100
AcDbCircle
 10
43.06787000500412
 20
1077.242092626788
 30
0.0
 40
1.104185135891991
100
AcDbArc
 50
153.075075309887
 51
206.9249246901129
  0
LINE
  5
9CC8
330
1F
100
AcDbEntity
  8
0
 62
     0
 48
0.3
100
AcDbLine
 10
41.97086002317769
 20
1075.742092626788
 30
0.0
 11
41.97086002317769
 21
1076.742092626788
 31
0.0
  0
ARC
  5
9CC9
330
1F
100
AcDbEntity
  8
0
 62
     0
 48
0.3
100
AcDbCircle
 10
43.11515004214061
 20
1074.242092594099
 30
0.0
 40
1.146539940593713
100
AcDbArc
 50
154.1450295252206
 51
205.8549704747793
  0
LINE
  5
9CCA
330
1F
100
AcDbEntity
  8
0
 62
     0
 48
0.3
100
AcDbLine
 10
41.97086002317769
 20
1074.26181939628
 30
0.0
 11
41.97086002317769
 21
1074.742092626788
 31
0.0
  0
LINE
  5
9CCB
330
1F
100
AcDbEntity
  8
0
 62
     0
 48
0.3
100
AcDbLine
 10
41.97086002317769
 20
1077.263098641514
 30
0.0
 11
41.97086002317769
 21
1074.234503897585
 31
0.0
  0
ARC
  5
9CCC
330
1F
100
AcDbEntity
  8
0
 62
     0
 48
0.3
100
AcDbCircle
 10
46.47086002317769
 20
1075.742092626788
 30
0.0
 40
4.5
100
AcDbArc
 50
167.160411228867
 51
192.8395884069044
  0
LINE
  5
9CCD
330
1F
100
AcDbEntity
  8
0
 62
     0
 48
0.3
100
AcDbLine
 10
41.97086002317769
 20
1074.742092626788
 30
0.0
 11
41.97086002317769
 21
1075.742092626788
 31
0.0
  0
LINE
  5
9CCE
330
1F
100
AcDbEntity
  8
0
100
AcDbLine
 10
43.47086002317769
 20
1076.742092626788
 30
0.0
 11
43.67086002317773
 21
1076.742092626788
 31
0.0
  0
LINE
  5
9CCF
330
1F
100
AcDbEntity
  8
0
100
AcDbLine
 10
43.47086002317769
 20
1077.742092626788
 30
0.0
 11
43.67086002317773
 21
1077.742092626788
 31
0.0
  0
LINE
  5
9CD0
330
1F
100
AcDbEntity
  8
0
100
AcDbLine
 10
43.47086002317769
 20
1073.742092626788
 30
0.0
 11
43.67086002317773
 21
1073.742092626788
 31
0.0
  0
LINE
  5
9CD1
330
1F
100
AcDbEntity
  8
0
100
AcDbLine
 10
43.47086002317769
 20
1074.742092626788
 30
0.0
 11
43.67086002317773
 21
1074.742092626788
 31
0.0
  0
LINE
  5
9CD2
330
1F
100
AcDbEntity
  8
0
 62
     0
 48
0.3
100
AcDbLine
 10
43.67086002317773
 20
1073.742092626788
 30
0.0
 11
43.67086002317773
 21
1077.742092626788
 31
0.0
  0
LINE
  5
9CD3
330
1F
100
AcDbEntity
  8
0
 62
     0
 48
0.3
100
AcDbLine
 10
42.08337782948183
 20
1073.742092626788
 30
0.0
 11
43.47086002317769
 21
1073.742092626788
 31
0.0
  0
LINE
  5
9CD4
330
1F
100
AcDbEntity
  8
0
 62
     0
 48
0.3
100
AcDbLine
 10
42.08337782948183
 20
1074.742092626788
 30
0.0
 11
43.47086002317769
 21
1074.742092626788
 31
0.0
  0
LINE
  5
9CD5
330
1F
100
AcDbEntity
  8
0
 62
     0
 48
0.3
100
AcDbLine
 10
43.47086002317769
 20
1077.742092626788
 30
0.0
 11
42.08337782948183
 21
1077.742092626788
 31
0.0
  0
LINE
  5
9CD6
330
1F
100
AcDbEntity
  8
0
 62
     0
 48
0.3
100
AcDbLine
 10
42.08337782948183
 20
1076.742092626788
 30
0.0
 11
43.47086002317769
 21
1076.742092626788
 31
0.0
  0
LINE
  5
9D19
330
1F
100
AcDbEntity
  8
0
 62
     0
 48
0.3
100
AcDbLine
 10
496.8583422168738
 20
1074.742092626788
 30
0.0
 11
495.4708600231778
 21
1074.742092626788
 31
0.0
  0
LINE
  5
9D1A
330
1F
100
AcDbEntity
  8
0
 62
     0
 48
0.3
100
AcDbLine
 10
495.4708600231778
 20
1073.742092626788
 30
0.0
 11
496.8583422168738
 21
1073.742092626788
 31
0.0
  0
LINE
  5
9D1B
330
1F
100
AcDbEntity
  8
0
 62
     0
 48
0.3
100
AcDbLine
 10
496.8583422168738
 20
1076.742092626788
 30
0.0
 11
495.4708600231778
 21
1076.742092626788
 31
0.0
  0
LINE
  5
9D1C
330
1F
100
AcDbEntity
  8
0
 62
     0
 48
0.3
100
AcDbLine
 10
496.8583422168738
 20
1077.742092626789
 30
0.0
 11
495.4708600231778
 21
1077.742092626789
 31
0.0
  0
LINE
  5
9D1D
330
1F
100
AcDbEntity
  8
0
 62
     0
 48
0.3
100
AcDbLine
 10
495.2708600231777
 20
1077.742092626789
 30
0.0
 11
495.2708600231777
 21
1073.742092626788
 31
0.0
  0
LINE
  5
9D1E
330
1F
100
AcDbEntity
  8
0
100
AcDbLine
 10
495.4708600231778
 20
1076.742092626788
 30
0.0
 11
495.2708600231777
 21
1076.742092626788
 31
0.0
  0
LINE
  5
9D1F
330
1F
100
AcDbEntity
  8
0
100
AcDbLine
 10
495.4708600231778
 20
1077.742092626789
 30
0.0
 11
495.2708600231777
 21
1077.742092626789
 31
0.0
  0
LINE
  5
9D20
330
1F
100
AcDbEntity
  8
0
100
AcDbLine
 10
495.4708600231778
 20
1073.742092626788
 30
0.0
 11
495.2708600231777
 21
1073.742092626788
 31
0.0
  0
LINE
  5
9D21
330
1F
100
AcDbEntity
  8
0
100
AcDbLine
 10
495.4708600231778
 20
1074.742092626788
 30
0.0
 11
495.2708600231777
 21
1074.742092626788
 31
0.0
  0
LINE
  5
9D22
330
1F
100
AcDbEntity
  8
0
 62
     0
 48
0.3
100
AcDbLine
 10
496.9708600231777
 20
1076.742092626788
 30
0.0
 11
496.9708600231777
 21
1075.742092626788
 31
0.0
  0
ARC
  5
9D23
330
1F
100
AcDbEntity
  8
0
 62
     0
 48
0.3
100
AcDbCircle
 10
492.4708600231777
 20
1075.742092626788
 30
0.0
 40
4.5
100
AcDbArc
 50
347.160411228867
 51
12.83958840690441
  0
LINE
  5
9D24
330
1F
100
AcDbEntity
  8
0
 62
     0
 48
0.3
100
AcDbLine
 10
496.9708600231777
 20
1074.221086612063
 30
0.0
 11
496.9708600231777
 21
1077.249681355991
 31
0.0
  0
LINE
  5
9D25
330
1F
100
AcDbEntity
  8
0
 62
     0
 48
0.3
100
AcDbLine
 10
496.9708600231777
 20
1077.222365857297
 30
0.0
 11
496.9708600231777
 21
1076.742092626788
 31
0.0
  0
ARC
  5
9D26
330
1F
100
AcDbEntity
  8
0
 62
     0
 48
0.3
100
AcDbCircle
 10
495.8265700042148
 20
1077.242092659478
 30
0.0
 40
1.146539940593713
100
AcDbArc
 50
334.1450295252206
 51
25.85497047477932
  0
LINE
  5
9D27
330
1F
100
AcDbEntity
  8
0
 62
     0
 48
0.3
100
AcDbLine
 10
496.9708600231777
 20
1075.742092626788
 30
0.0
 11
496.9708600231777
 21
1074.742092626788
 31
0.0
  0
ARC
  5
9D28
330
1F
100
AcDbEntity
  8
0
 62
     0
 48
0.3
100
AcDbCircle
 10
495.8738500413513
 20
1074.242092626789
 30
0.0
 40
1.104185135891991
100
AcDbArc
 50
333.075075309887
 51
26.924924690113
  0
MTEXT
  5
9D2A
330
1F
100
AcDbEntity
  8
0
 62
     0
 48
0.5
100
AcDbMText
 10
72.41260580852941
 20
991.3390391288688
 30
0.0
 40
6.0
 41
0.0
 71
     1
 72
     1
  1
M10ボルト（孔径%%c11～12）
 73
     1
 44
1.0
  0
LEADER
  5
9D2B
330
1F
100
AcDbEntity
  8
0
 62
     0
 48
0.5
100
AcDbLeader
  3
ISO-25
 73
     0
 40
6.0
 76
     3
 10
43.67086002317773
 20
1040.578443734425
 30
0.0
 10
68.59928748530274
 20
987.961736932036
 30
0.0
 10
70.00883622062701
 20
987.961736932036
 30
0.0
340
9D2C
213
0.0
223
-3.0
233
0.0
1001
ACAD
1000
DSTYLE
1002
{
1070
   147
1040
3.0
1070
    77
1070
     0
1002
}
  0
MTEXT
  5
9D2C
102
{ACAD_REACTORS
330
9D2B
102
}
330
1F
100
AcDbEntity
  8
0
 62
     0
 48
0.5
100
AcDbMText
 10
87.30455956487459
 20
1175.438614636807
 30
0.0
 40
6.0
 41
20.438
 71
     1
 72
     1
  1

 73
     1
 44
1.0
  0
LEADER
  5
9D2D
330
1F
100
AcDbEntity
  8
0
 62
     0
 48
0.5
100
AcDbLeader
  3
ISO-25
 40
6.0
 76
     3
 10
194.4708600231777
 20
1040.578443734425
 30
0.0
 10
219.3992874853027
 20
987.961736932036
 30
0.0
 10
220.808836220627
 20
987.961736932036
 30
0.0
213
0.0
223
-3.0
233
0.0
1001
ACAD
1000
DSTYLE
1002
{
1070
   147
1040
3.0
1070
    77
1070
     0
1002
}
  0
MTEXT
  5
9D2E
330
1F
100
AcDbEntity
  8
0
 62
     0
 48
0.5
100
AcDbMText
 10
223.2126058085294
 20
991.3390391288688
 30
0.0
 40
6.0
 41
0.0
 71
     1
 72
     1
  1
M10ジョイント（孔径%%c11～12）
 73
     1
 44
1.0
  0
LEADER
  5
9D2F
330
1F
100
AcDbEntity
  8
0
 62
     0
 48
0.5
100
AcDbLeader
  3
ISO-25
 40
6.0
 76
     3
 10
344.4708600231777
 20
1040.578443734425
 30
0.0
 10
369.3992874853027
 20
987.961736932036
 30
0.0
 10
370.8088362206269
 20
987.961736932036
 30
0.0
213
0.0
223
-3.0
233
0.0
1001
ACAD
1000
DSTYLE
1002
{
1070
   147
1040
3.0
1070
    77
1070
     0
1002
}
  0
MTEXT
  5
9D30
330
1F
100
AcDbEntity
  8
0
 62
     0
 48
0.5
100
AcDbMText
 10
373.2126058085293
 20
991.3390391288688
 30
0.0
 40
6.0
 41
0.0
 71
     1
 72
     1
  1
中間貫通部（孔径%%c14）
 73
     1
 44
1.0
  0
LINE
  5
9D35
330
1F
100
AcDbEntity
  8
0
 62
     0
 48
0.5
100
AcDbLine
 10
345.2708600231777
 20
1083.599436165629
 30
0.0
 11
345.2708600231777
 21
997.6380979903892
 31
0.0
  0
LINE
  5
9D36
330
1F
100
AcDbEntity
  8
0
 62
     0
 48
0.5
100
AcDbLine
 10
343.6708600231777
 20
1083.599436165629
 30
0.0
 11
343.6708600231777
 21
997.6380979903892
 31
0.0
  0
LINE
  5
9D37
330
1F
100
AcDbEntity
  8
0
 62
     0
 48
0.5
100
AcDbLine
 10
345.2708600231777
 20
1094.163595568635
 30
0.0
 11
345.2708600231777
 21
1107.638097990389
 31
0.0
  0
LINE
  5
9D39
330
1F
100
AcDbEntity
  8
0
 62
     0
 48
0.5
100
AcDbLine
 10
343.6708600231777
 20
1094.163595568635
 30
0.0
 11
343.6708600231777
 21
1107.638097990389
 31
0.0
  0
LINE
  5
9D3B
330
1F
100
AcDbEntity
  8
0
 62
     0
 48
0.5
100
AcDbLine
 10
345.2708600231777
 20
1083.599436165629
 30
0.0
 11
345.2708600231777
 21
997.6380979903892
 31
0.0
  0
LINE
  5
9D3C
330
1F
100
AcDbEntity
  8
0
 62
     0
 48
0.5
100
AcDbLine
 10
343.6708600231777
 20
1083.599436165629
 30
0.0
 11
343.6708600231777
 21
997.6380979903892
 31
0.0
  0
LINE
  5
A10E
330
1F
100
AcDbEntity
  8
0
 62
     0
 48
0.5
100
AcDbLine
 10
476.7708600231777
 20
1077.642092626788
 30
0.0
 11
493.6708600231778
 21
1077.642092626788
 31
0.0
  0
LINE
  5
A10F
330
1F
100
AcDbEntity
  8
0
 62
     0
 48
0.5
100
AcDbLine
 10
493.6708600231778
 20
1073.842092626788
 30
0.0
 11
476.7708600231777
 21
1073.842092626788
 31
0.0
  0
LINE
  5
A110
330
1F
100
AcDbEntity
  8
0
 62
     0
 48
0.5
100
AcDbLine
 10
476.6708600231778
 20
1073.942092626788
 30
0.0
 11
476.6708600231778
 21
1077.542092626788
 31
0.0
  0
LINE
  5
A111
330
1F
100
AcDbEntity
  8
0
 62
     0
 48
0.5
100
AcDbLine
 10
476.6708600231778
 20
1075.742092626788
 30
0.0
 11
476.6708600231778
 21
1076.342092626788
 31
0.0
  0
LINE
  5
A112
330
1F
100
AcDbEntity
  8
0
 62
     0
 48
0.5
100
AcDbLine
 10
476.6708600231778
 20
1076.342092626788
 30
0.0
 11
476.6708600231778
 21
1075.142092626788
 31
0.0
  0
LINE
  5
A113
330
1F
100
AcDbEntity
  8
0
 62
     0
 48
0.5
100
AcDbLine
 10
476.6708600231778
 20
1073.942092626788
 30
0.0
 11
476.7708600231777
 21
1073.842092626788
 31
0.0
  0
LINE
  5
A114
330
1F
100
AcDbEntity
  8
0
 62
     0
 48
0.5
100
AcDbLine
 10
476.6708600231778
 20
1077.542092626788
 30
0.0
 11
476.7708600231777
 21
1077.642092626788
 31
0.0
  0
LINE
  5
A117
330
1F
100
AcDbEntity
  8
0
 62
     0
 48
0.5
100
AcDbLine
 10
495.2708600231777
 20
1077.642092626788
 30
0.0
 11
495.2708600231777
 21
1073.842092626788
 31
0.0
  0
LINE
  5
A118
330
1F
100
AcDbEntity
  8
0
 62
     0
 48
0.5
100
AcDbLine
 10
493.6708600231778
 20
1077.642092626788
 30
0.0
 11
493.6708600231778
 21
1073.842092626788
 31
0.0
  0
LINE
  5
A11E
330
1F
100
AcDbEntity
  8
0
 62
     0
 48
0.5
100
AcDbLine
 10
325.0708600231777
 20
1076.342092626788
 30
0.0
 11
343.6708600231777
 21
1076.342092626788
 31
0.0
  0
LINE
  5
A11F
330
1F
100
AcDbEntity
  8
0
 62
     0
 48
0.5
100
AcDbLine
 10
325.0708600231777
 20
1075.142092626788
 30
0.0
 11
343.6708600231777
 21
1075.142092626788
 31
0.0
  0
LINE
  5
A120
330
1F
100
AcDbEntity
  8
0
 62
     0
 48
0.5
100
AcDbLine
 10
362.2708600231777
 20
1076.342092626788
 30
0.0
 11
345.2708600231777
 21
1076.342092626788
 31
0.0
  0
LINE
  5
A121
330
1F
100
AcDbEntity
  8
0
 62
     0
 48
0.5
100
AcDbLine
 10
362.2708600231777
 20
1075.142092626788
 30
0.0
 11
345.2708600231777
 21
1075.142092626788
 31
0.0
  0
LINE
  5
A122
330
1F
100
AcDbEntity
  8
0
 62
     0
 48
0.5
100
AcDbLine
 10
212.2708600231777
 20
1076.342092626788
 30
0.0
 11
308.5344432328075
 21
1076.342092626788
 31
0.0
  0
LINE
  5
A123
330
1F
100
AcDbEntity
  8
0
 62
     0
 48
0.5
100
AcDbLine
 10
212.2708600231777
 20
1075.142092626788
 30
0.0
 11
308.5344432328075
 21
1075.142092626788
 31
0.0
  0
LINE
  5
A124
330
1F
100
AcDbEntity
  8
0
 62
     0
 48
0.5
100
AcDbLine
 10
212.2708600231777
 20
1041.342092626788
 30
0.0
 11
308.5344432328075
 21
1041.342092626788
 31
0.0
  0
LINE
  5
A125
330
1F
100
AcDbEntity
  8
0
 62
     0
 48
0.5
100
AcDbLine
 10
212.2708600231777
 20
1042.542092626788
 30
0.0
 11
308.5344432328075
 21
1042.542092626788
 31
0.0
  0
LINE
  5
A126
330
1F
100
AcDbEntity
  8
0
 62
     0
 48
0.5
100
AcDbLine
 10
45.27086002317775
 20
1040.042092626788
 30
0.0
 11
62.17086002317762
 21
1040.042092626788
 31
0.0
  0
LINE
  5
A127
330
1F
100
AcDbEntity
  8
0
 62
     0
 48
0.5
100
AcDbLine
 10
62.17086002317762
 20
1043.842092626788
 30
0.0
 11
45.27086002317775
 21
1043.842092626788
 31
0.0
  0
LINE
  5
A128
330
1F
100
AcDbEntity
  8
0
 62
     0
 48
0.3
100
AcDbLine
 10
43.47086002317769
 20
1043.942092626788
 30
0.0
 11
42.08337782948183
 21
1043.942092626788
 31
0.0
  0
LINE
  5
A129
330
1F
100
AcDbEntity
  8
0
 62
     0
 48
0.3
100
AcDbLine
 10
42.08337782948183
 20
1040.942092626788
 30
0.0
 11
43.47086002317769
 21
1040.942092626788
 31
0.0
  0
LINE
  5
A12A
330
1F
100
AcDbEntity
  8
0
 62
     0
 48
0.3
100
AcDbLine
 10
42.08337782948183
 20
1042.942092626788
 30
0.0
 11
43.47086002317769
 21
1042.942092626788
 31
0.0
  0
LINE
  5
A12B
330
1F
100
AcDbEntity
  8
0
 62
     0
 48
0.3
100
AcDbLine
 10
42.08337782948183
 20
1039.942092626788
 30
0.0
 11
43.47086002317769
 21
1039.942092626788
 31
0.0
  0
ARC
  5
A12C
330
1F
100
AcDbEntity
  8
0
 62
     0
 48
0.3
100
AcDbCircle
 10
43.06787000500412
 20
1043.442092626788
 30
0.0
 40
1.104185135891991
100
AcDbArc
 50
153.075075309887
 51
206.9249246901129
  0
LINE
  5
A12D
330
1F
100
AcDbEntity
  8
0
 62
     0
 48
0.3
100
AcDbLine
 10
41.97086002317769
 20
1043.463098641514
 30
0.0
 11
41.97086002317769
 21
1040.434503897585
 31
0.0
  0
LINE
  5
A12E
330
1F
100
AcDbEntity
  8
0
 62
     0
 48
0.3
100
AcDbLine
 10
41.97086002317769
 20
1041.942092626788
 30
0.0
 11
41.97086002317769
 21
1042.942092626788
 31
0.0
  0
LINE
  5
A12F
330
1F
100
AcDbEntity
  8
0
 62
     0
 48
0.3
100
AcDbLine
 10
41.97086002317769
 20
1040.46181939628
 30
0.0
 11
41.97086002317769
 21
1040.942092626788
 31
0.0
  0
ARC
  5
A130
330
1F
100
AcDbEntity
  8
0
 62
     0
 48
0.3
100
AcDbCircle
 10
46.47086002317769
 20
1041.942092626788
 30
0.0
 40
4.5
100
AcDbArc
 50
167.160411228867
 51
192.8395884069044
  0
LINE
  5
A131
330
1F
100
AcDbEntity
  8
0
 62
     0
 48
0.3
100
AcDbLine
 10
41.97086002317769
 20
1040.942092626788
 30
0.0
 11
41.97086002317769
 21
1041.942092626788
 31
0.0
  0
ARC
  5
A132
330
1F
100
AcDbEntity
  8
0
 62
     0
 48
0.3
100
AcDbCircle
 10
43.11515004214061
 20
1040.442092594099
 30
0.0
 40
1.146539940593713
100
AcDbArc
 50
154.1450295252206
 51
205.8549704747793
  0
LINE
  5
A133
330
1F
100
AcDbEntity
  8
0
 62
     0
 48
0.3
100
AcDbLine
 10
43.67086002317773
 20
1039.942092626788
 30
0.0
 11
43.67086002317773
 21
1043.942092626788
 31
0.0
  0
LINE
  5
A134
330
1F
100
AcDbEntity
  8
0
 62
     0
 48
0.5
100
AcDbLine
 10
45.27086002317775
 20
1043.842092626788
 30
0.0
 11
45.27086002317775
 21
1040.042092626788
 31
0.0
  0
LINE
  5
A135
330
1F
100
AcDbEntity
  8
0
100
AcDbLine
 10
43.47086002317769
 20
1042.942092626788
 30
0.0
 11
43.67086002317773
 21
1042.942092626788
 31
0.0
  0
LINE
  5
A136
330
1F
100
AcDbEntity
  8
0
100
AcDbLine
 10
43.47086002317769
 20
1040.942092626788
 30
0.0
 11
43.67086002317773
 21
1040.942092626788
 31
0.0
  0
LINE
  5
A137
330
1F
100
AcDbEntity
  8
0
100
AcDbLine
 10
43.47086002317769
 20
1039.942092626788
 30
0.0
 11
43.67086002317773
 21
1039.942092626788
 31
0.0
  0
LINE
  5
A138
330
1F
100
AcDbEntity
  8
0
100
AcDbLine
 10
43.47086002317769
 20
1043.942092626788
 30
0.0
 11
43.67086002317773
 21
1043.942092626788
 31
0.0
  0
LINE
  5
A139
330
1F
100
AcDbEntity
  8
0
 62
     0
 48
0.5
100
AcDbLine
 10
176.7708600231776
 20
1043.842092626788
 30
0.0
 11
193.6708600231777
 21
1043.842092626788
 31
0.0
  0
LINE
  5
A13A
330
1F
100
AcDbEntity
  8
0
 62
     0
 48
0.5
100
AcDbLine
 10
193.6708600231777
 20
1040.042092626788
 30
0.0
 11
176.7708600231776
 21
1040.042092626788
 31
0.0
  0
LINE
  5
A13B
330
1F
100
AcDbEntity
  8
0
 62
     0
 48
0.5
100
AcDbLine
 10
78.8072768135479
 20
1041.342092626788
 30
0.0
 11
176.6708600231777
 21
1041.342092626788
 31
0.0
  0
LINE
  5
A13C
330
1F
100
AcDbEntity
  8
0
 62
     0
 48
0.5
100
AcDbLine
 10
78.8072768135479
 20
1042.542092626788
 30
0.0
 11
176.6708600231777
 21
1042.542092626788
 31
0.0
  0
LINE
  5
A13D
330
1F
100
AcDbEntity
  8
0
 62
     0
 48
0.5
100
AcDbLine
 10
62.27086002317776
 20
1041.342092626788
 30
0.0
 11
78.8072768135479
 21
1041.342092626788
 31
0.0
  0
LINE
  5
A13E
330
1F
100
AcDbEntity
  8
0
 62
     0
 48
0.5
100
AcDbLine
 10
62.27086002317776
 20
1042.542092626788
 30
0.0
 11
78.8072768135479
 21
1042.542092626788
 31
0.0
  0
LINE
  5
A13F
330
1F
100
AcDbEntity
  8
0
 62
     0
 48
0.5
100
AcDbLine
 10
62.27086002317776
 20
1040.142092626788
 30
0.0
 11
62.27086002317776
 21
1043.742092626788
 31
0.0
  0
LINE
  5
A140
330
1F
100
AcDbEntity
  8
0
 62
     0
 48
0.5
100
AcDbLine
 10
62.27086002317776
 20
1040.142092626788
 30
0.0
 11
62.17086002317762
 21
1040.042092626788
 31
0.0
  0
LINE
  5
A141
330
1F
100
AcDbEntity
  8
0
 62
     0
 48
0.5
100
AcDbLine
 10
62.27086002317776
 20
1042.542092626788
 30
0.0
 11
62.27086002317776
 21
1041.342092626788
 31
0.0
  0
LINE
  5
A142
330
1F
100
AcDbEntity
  8
0
 62
     0
 48
0.5
100
AcDbLine
 10
62.27086002317776
 20
1041.942092626788
 30
0.0
 11
62.27086002317776
 21
1042.542092626788
 31
0.0
  0
LINE
  5
A143
330
1F
100
AcDbEntity
  8
0
 62
     0
 48
0.5
100
AcDbLine
 10
62.17086002317762
 20
1043.842092626788
 30
0.0
 11
62.27086002317776
 21
1043.742092626788
 31
0.0
  0
LINE
  5
A144
330
1F
100
AcDbEntity
  8
0
 62
     0
 48
0.5
100
AcDbLine
 10
176.6708600231777
 20
1040.142092626788
 30
0.0
 11
176.6708600231777
 21
1043.742092626788
 31
0.0
  0
LINE
  5
A145
330
1F
100
AcDbEntity
  8
0
 62
     0
 48
0.5
100
AcDbLine
 10
176.6708600231777
 20
1041.942092626788
 30
0.0
 11
176.6708600231777
 21
1042.542092626788
 31
0.0
  0
LINE
  5
A146
330
1F
100
AcDbEntity
  8
0
 62
     0
 48
0.5
100
AcDbLine
 10
176.6708600231777
 20
1042.542092626788
 30
0.0
 11
176.6708600231777
 21
1041.342092626788
 31
0.0
  0
LINE
  5
A147
330
1F
100
AcDbEntity
  8
0
 62
     0
 48
0.5
100
AcDbLine
 10
176.6708600231777
 20
1040.142092626788
 30
0.0
 11
176.7708600231776
 21
1040.042092626788
 31
0.0
  0
LINE
  5
A148
330
1F
100
AcDbEntity
  8
0
 62
     0
 48
0.5
100
AcDbLine
 10
176.6708600231777
 20
1043.742092626788
 30
0.0
 11
176.7708600231776
 21
1043.842092626788
 31
0.0
  0
LINE
  5
A149
330
1F
100
AcDbEntity
  8
0
 62
     0
 48
0.5
100
AcDbLine
 10
195.2708600231776
 20
1040.042092626788
 30
0.0
 11
212.1708600231776
 21
1040.042092626788
 31
0.0
  0
LINE
  5
A14A
330
1F
100
AcDbEntity
  8
0
 62
     0
 48
0.5
100
AcDbLine
 10
212.1708600231776
 20
1043.842092626788
 30
0.0
 11
195.2708600231776
 21
1043.842092626788
 31
0.0
  0
LINE
  5
A14B
330
1F
100
AcDbEntity
  8
0
 62
     0
 48
0.5
100
AcDbLine
 10
195.2708600231776
 20
1043.842092626788
 30
0.0
 11
195.2708600231776
 21
1040.042092626788
 31
0.0
  0
LINE
  5
A14C
330
1F
100
AcDbEntity
  8
0
 62
     0
 48
0.5
100
AcDbLine
 10
193.6708600231777
 20
1043.842092626788
 30
0.0
 11
193.6708600231777
 21
1040.042092626788
 31
0.0
  0
LINE
  5
A14D
330
1F
100
AcDbEntity
  8
0
 62
     0
 48
0.5
100
AcDbLine
 10
212.2708600231776
 20
1040.142092626788
 30
0.0
 11
212.2708600231776
 21
1043.742092626788
 31
0.0
  0
LINE
  5
A14E
330
1F
100
AcDbEntity
  8
0
 62
     0
 48
0.5
100
AcDbLine
 10
212.2708600231776
 20
1040.142092626788
 30
0.0
 11
212.1708600231776
 21
1040.042092626788
 31
0.0
  0
LINE
  5
A14F
330
1F
100
AcDbEntity
  8
0
 62
     0
 48
0.5
100
AcDbLine
 10
212.2708600231776
 20
1041.942092626788
 30
0.0
 11
212.2708600231776
 21
1042.542092626788
 31
0.0
  0
LINE
  5
A150
330
1F
100
AcDbEntity
  8
0
 62
     0
 48
0.5
100
AcDbLine
 10
212.2708600231776
 20
1042.542092626788
 30
0.0
 11
212.2708600231776
 21
1041.342092626788
 31
0.0
  0
LINE
  5
A151
330
1F
100
AcDbEntity
  8
0
 62
     0
 48
0.5
100
AcDbLine
 10
212.1708600231776
 20
1043.842092626788
 30
0.0
 11
212.2708600231776
 21
1043.742092626788
 31
0.0
  0
LINE
  5
A152
330
1F
100
AcDbEntity
  8
0
 62
     0
 48
0.5
100
AcDbLine
 10
378.8072768135478
 20
1041.342092626788
 30
0.0
 11
476.6708600231778
 21
1041.342092626788
 31
0.0
  0
LINE
  5
A153
330
1F
100
AcDbEntity
  8
0
 62
     0
 48
0.5
100
AcDbLine
 10
378.8072768135478
 20
1042.542092626788
 30
0.0
 11
476.6708600231778
 21
1042.542092626788
 31
0.0
  0
LINE
  5
A154
330
1F
100
AcDbEntity
  8
0
 62
     0
 48
0.5
100
AcDbLine
 10
362.2708600231777
 20
1042.542092626788
 30
0.0
 11
378.8072768135478
 21
1042.542092626788
 31
0.0
  0
LINE
  5
A155
330
1F
100
AcDbEntity
  8
0
 62
     0
 48
0.5
100
AcDbLine
 10
362.2708600231777
 20
1041.342092626788
 30
0.0
 11
378.8072768135478
 21
1041.342092626788
 31
0.0
  0
LINE
  5
A156
330
1F
100
AcDbEntity
  8
0
 62
     0
 48
0.5
100
AcDbLine
 10
325.0708600231777
 20
1041.342092626788
 30
0.0
 11
343.6708600231777
 21
1041.342092626788
 31
0.0
  0
LINE
  5
A157
330
1F
100
AcDbEntity
  8
0
 62
     0
 48
0.5
100
AcDbLine
 10
325.0708600231777
 20
1042.542092626788
 30
0.0
 11
343.6708600231777
 21
1042.542092626788
 31
0.0
  0
LINE
  5
A158
330
1F
100
AcDbEntity
  8
0
 62
     0
 48
0.5
100
AcDbLine
 10
325.0708600231777
 20
1041.342092626788
 30
0.0
 11
308.5344432328075
 21
1041.342092626788
 31
0.0
  0
LINE
  5
A159
330
1F
100
AcDbEntity
  8
0
 62
     0
 48
0.5
100
AcDbLine
 10
325.0708600231777
 20
1042.542092626788
 30
0.0
 11
308.5344432328075
 21
1042.542092626788
 31
0.0
  0
LINE
  5
A15A
330
1F
100
AcDbEntity
  8
0
 62
     0
 48
0.5
100
AcDbLine
 10
362.2708600231777
 20
1041.342092626788
 30
0.0
 11
345.2708600231777
 21
1041.342092626788
 31
0.0
  0
LINE
  5
A15B
330
1F
100
AcDbEntity
  8
0
 62
     0
 48
0.5
100
AcDbLine
 10
362.2708600231777
 20
1042.542092626788
 30
0.0
 11
345.2708600231777
 21
1042.542092626788
 31
0.0
  0
LINE
  5
A15C
330
1F
100
AcDbEntity
  8
0
 62
     0
 48
0.3
100
AcDbLine
 10
496.8583422168738
 20
1043.942092626789
 30
0.0
 11
495.4708600231778
 21
1043.942092626789
 31
0.0
  0
LINE
  5
A15D
330
1F
100
AcDbEntity
  8
0
 62
     0
 48
0.3
100
AcDbLine
 10
496.8583422168738
 20
1040.942092626788
 30
0.0
 11
495.4708600231778
 21
1040.942092626788
 31
0.0
  0
LINE
  5
A15E
330
1F
100
AcDbEntity
  8
0
 62
     0
 48
0.3
100
AcDbLine
 10
495.4708600231778
 20
1039.942092626789
 30
0.0
 11
496.8583422168738
 21
1039.942092626789
 31
0.0
  0
LINE
  5
A15F
330
1F
100
AcDbEntity
  8
0
 62
     0
 48
0.3
100
AcDbLine
 10
496.8583422168738
 20
1042.942092626788
 30
0.0
 11
495.4708600231778
 21
1042.942092626788
 31
0.0
  0
LINE
  5
A160
330
1F
100
AcDbEntity
  8
0
 62
     0
 48
0.5
100
AcDbLine
 10
493.6708600231778
 20
1040.042092626788
 30
0.0
 11
476.7708600231777
 21
1040.042092626788
 31
0.0
  0
LINE
  5
A161
330
1F
100
AcDbEntity
  8
0
 62
     0
 48
0.5
100
AcDbLine
 10
476.7708600231777
 20
1043.842092626788
 30
0.0
 11
493.6708600231778
 21
1043.842092626788
 31
0.0
  0
LINE
  5
A162
330
1F
100
AcDbEntity
  8
0
 62
     0
 48
0.5
100
AcDbLine
 10
476.6708600231778
 20
1040.142092626788
 30
0.0
 11
476.6708600231778
 21
1043.742092626788
 31
0.0
  0
LINE
  5
A163
330
1F
100
AcDbEntity
  8
0
 62
     0
 48
0.5
100
AcDbLine
 10
476.6708600231778
 20
1040.142092626788
 30
0.0
 11
476.7708600231777
 21
1040.042092626788
 31
0.0
  0
LINE
  5
A164
330
1F
100
AcDbEntity
  8
0
 62
     0
 48
0.5
100
AcDbLine
 10
476.6708600231778
 20
1042.542092626788
 30
0.0
 11
476.6708600231778
 21
1041.342092626788
 31
0.0
  0
LINE
  5
A165
330
1F
100
AcDbEntity
  8
0
 62
     0
 48
0.5
100
AcDbLine
 10
476.6708600231778
 20
1041.942092626788
 30
0.0
 11
476.6708600231778
 21
1042.542092626788
 31
0.0
  0
LINE
  5
A166
330
1F
100
AcDbEntity
  8
0
 62
     0
 48
0.5
100
AcDbLine
 10
476.6708600231778
 20
1043.742092626788
 30
0.0
 11
476.7708600231777
 21
1043.842092626788
 31
0.0
  0
LINE
  5
A167
330
1F
100
AcDbEntity
  8
0
 62
     0
 48
0.3
100
AcDbLine
 10
495.2708600231777
 20
1043.942092626789
 30
0.0
 11
495.2708600231777
 21
1039.942092626789
 31
0.0
  0
LINE
  5
A168
330
1F
100
AcDbEntity
  8
0
 62
     0
 48
0.5
100
AcDbLine
 10
493.6708600231778
 20
1043.842092626788
 30
0.0
 11
493.6708600231778
 21
1040.042092626788
 31
0.0
  0
LINE
  5
A169
330
1F
100
AcDbEntity
  8
0
 62
     0
 48
0.5
100
AcDbLine
 10
495.2708600231777
 20
1043.842092626788
 30
0.0
 11
495.2708600231777
 21
1040.042092626788
 31
0.0
  0
LINE
  5
A16A
330
1F
100
AcDbEntity
  8
0
100
AcDbLine
 10
495.4708600231778
 20
1042.942092626788
 30
0.0
 11
495.2708600231777
 21
1042.942092626788
 31
0.0
  0
LINE
  5
A16B
330
1F
100
AcDbEntity
  8
0
100
AcDbLine
 10
495.4708600231778
 20
1040.942092626788
 30
0.0
 11
495.2708600231777
 21
1040.942092626788
 31
0.0
  0
LINE
  5
A16C
330
1F
100
AcDbEntity
  8
0
100
AcDbLine
 10
495.4708600231778
 20
1039.942092626789
 30
0.0
 11
495.2708600231777
 21
1039.942092626789
 31
0.0
  0
LINE
  5
A16D
330
1F
100
AcDbEntity
  8
0
100
AcDbLine
 10
495.4708600231778
 20
1043.942092626789
 30
0.0
 11
495.2708600231777
 21
1043.942092626789
 31
0.0
  0
LINE
  5
A16E
330
1F
100
AcDbEntity
  8
0
 62
     0
 48
0.3
100
AcDbLine
 10
496.9708600231777
 20
1040.421086612063
 30
0.0
 11
496.9708600231777
 21
1043.449681355991
 31
0.0
  0
LINE
  5
A16F
330
1F
100
AcDbEntity
  8
0
 62
     0
 48
0.3
100
AcDbLine
 10
496.9708600231777
 20
1043.422365857296
 30
0.0
 11
496.9708600231777
 21
1042.942092626788
 31
0.0
  0
ARC
  5
A170
330
1F
100
AcDbEntity
  8
0
 62
     0
 48
0.3
100
AcDbCircle
 10
495.8265700042148
 20
1043.442092659478
 30
0.0
 40
1.146539940593713
100
AcDbArc
 50
334.1450295252206
 51
25.85497047477932
  0
LINE
  5
A171
330
1F
100
AcDbEntity
  8
0
 62
     0
 48
0.3
100
AcDbLine
 10
496.9708600231777
 20
1042.942092626788
 30
0.0
 11
496.9708600231777
 21
1041.942092626789
 31
0.0
  0
ARC
  5
A172
330
1F
100
AcDbEntity
  8
0
 62
     0
 48
0.3
100
AcDbCircle
 10
492.4708600231777
 20
1041.942092626789
 30
0.0
 40
4.5
100
AcDbArc
 50
347.160411228867
 51
12.83958840690441
  0
LINE
  5
A173
330
1F
100
AcDbEntity
  8
0
 62
     0
 48
0.3
100
AcDbLine
 10
496.9708600231777
 20
1041.942092626789
 30
0.0
 11
496.9708600231777
 21
1040.942092626788
 31
0.0
  0
ARC
  5
A174
330
1F
100
AcDbEntity
  8
0
 62
     0
 48
0.3
100
AcDbCircle
 10
495.8738500413513
 20
1040.442092626788
 30
0.0
 40
1.104185135891991
100
AcDbArc
 50
333.075075309887
 51
26.924924690113
  0
LINE
  5
A32B
330
1F
100
AcDbEntity
  8
0
 62
     0
 48
0.3
100
AcDbLine
 10
37.95653997491524
 20
1194.500823802125
 30
0.0
 11
37.95653997491524
 21
1214.500823802125
 31
0.0
  0
ARC
  5
A32C
330
1F
100
AcDbEntity
  8
0
 62
     0
 48
0.3
100
AcDbCircle
 10
34.94158988404717
 20
1212.000823802125
 30
0.0
 40
5.520925679459959
100
AcDbArc
 50
153.075075309887
 51
206.9249246901129
  0
LINE
  5
A32D
330
1F
100
AcDbEntity
  8
0
 62
     0
 48
0.3
100
AcDbLine
 10
29.45653997491501
 20
1204.500823802125
 30
0.0
 11
29.45653997491501
 21
1209.500823802125
 31
0.0
  0
ARC
  5
A32E
330
1F
100
AcDbEntity
  8
0
 62
     0
 48
0.3
100
AcDbCircle
 10
35.17799006972961
 20
1197.00082363868
 30
0.0
 40
5.732699702968568
100
AcDbArc
 50
154.1450295252206
 51
205.8549704747793
  0
LINE
  5
A32F
330
1F
100
AcDbEntity
  8
0
 62
     0
 48
0.3
100
AcDbLine
 10
29.45653997491501
 20
1197.099457649586
 30
0.0
 11
29.45653997491501
 21
1199.500823802125
 31
0.0
  0
LINE
  5
A330
330
1F
100
AcDbEntity
  8
0
 62
     0
 48
0.3
100
AcDbLine
 10
29.45653997491501
 20
1212.105853875753
 30
0.0
 11
29.45653997491501
 21
1196.962880156111
 31
0.0
  0
ARC
  5
A331
330
1F
100
AcDbEntity
  8
0
 62
     0
 48
0.3
100
AcDbCircle
 10
51.95653997491501
 20
1204.500823802125
 30
0.0
 40
22.5
100
AcDbArc
 50
167.160411228867
 51
192.8395884069044
  0
LINE
  5
A332
330
1F
100
AcDbEntity
  8
0
 62
     0
 48
0.3
100
AcDbLine
 10
29.45653997491501
 20
1199.500823802125
 30
0.0
 11
29.45653997491501
 21
1204.500823802125
 31
0.0
  0
LINE
  5
A333
330
1F
100
AcDbEntity
  8
0
 62
     0
 48
0.3
100
AcDbLine
 10
30.01912900643572
 20
1194.500823802125
 30
0.0
 11
36.95653997491501
 21
1194.500823802125
 31
0.0
  0
LINE
  5
A334
330
1F
100
AcDbEntity
  8
0
 62
     0
 48
0.3
100
AcDbLine
 10
30.01912900643572
 20
1199.500823802125
 30
0.0
 11
36.95653997491501
 21
1199.500823802125
 31
0.0
  0
LINE
  5
A335
330
1F
100
AcDbEntity
  8
0
 62
     0
 48
0.3
100
AcDbLine
 10
36.95653997491501
 20
1214.500823802125
 30
0.0
 11
30.01912900643572
 21
1214.500823802125
 31
0.0
  0
LINE
  5
A336
330
1F
100
AcDbEntity
  8
0
 62
     0
 48
0.3
100
AcDbLine
 10
30.01912900643572
 20
1209.500823802125
 30
0.0
 11
36.95653997491501
 21
1209.500823802125
 31
0.0
  0
LINE
  5
A337
330
1F
100
AcDbEntity
  8
0
100
AcDbLine
 10
36.95653997491501
 20
1209.500823802125
 30
0.0
 11
37.95653997491524
 21
1209.500823802125
 31
0.0
  0
LINE
  5
A338
330
1F
100
AcDbEntity
  8
0
100
AcDbLine
 10
36.95653997491501
 20
1214.500823802125
 30
0.0
 11
37.95653997491524
 21
1214.500823802125
 31
0.0
  0
LINE
  5
A339
330
1F
100
AcDbEntity
  8
0
100
AcDbLine
 10
36.95653997491501
 20
1194.500823802125
 30
0.0
 11
37.95653997491524
 21
1194.500823802125
 31
0.0
  0
LINE
  5
A33A
330
1F
100
AcDbEntity
  8
0
100
AcDbLine
 10
36.95653997491501
 20
1199.500823802125
 30
0.0
 11
37.95653997491524
 21
1199.500823802125
 31
0.0
  0
LINE
  5
A363
330
1F
100
AcDbEntity
  8
0
 62
     0
 48
0.3
100
AcDbLine
 10
509.6082709916587
 20
1199.500823802128
 30
0.0
 11
502.6708600231783
 21
1199.500823802128
 31
0.0
  0
LINE
  5
A364
330
1F
100
AcDbEntity
  8
0
 62
     0
 48
0.3
100
AcDbLine
 10
502.6708600231783
 20
1194.500823802129
 30
0.0
 11
509.6082709916587
 21
1194.500823802129
 31
0.0
  0
LINE
  5
A365
330
1F
100
AcDbEntity
  8
0
 62
     0
 48
0.3
100
AcDbLine
 10
509.6082709916587
 20
1209.500823802128
 30
0.0
 11
502.6708600231783
 21
1209.500823802128
 31
0.0
  0
LINE
  5
A366
330
1F
100
AcDbEntity
  8
0
 62
     0
 48
0.3
100
AcDbLine
 10
509.6082709916587
 20
1214.500823802129
 30
0.0
 11
502.6708600231783
 21
1214.500823802129
 31
0.0
  0
LINE
  5
A367
330
1F
100
AcDbEntity
  8
0
 62
     0
 48
0.3
100
AcDbLine
 10
501.6708600231781
 20
1214.500823802129
 30
0.0
 11
501.6708600231781
 21
1194.500823802129
 31
0.0
  0
LINE
  5
A368
330
1F
100
AcDbEntity
  8
0
100
AcDbLine
 10
502.6708600231783
 20
1209.500823802128
 30
0.0
 11
501.6708600231781
 21
1209.500823802128
 31
0.0
  0
LINE
  5
A369
330
1F
100
AcDbEntity
  8
0
100
AcDbLine
 10
502.6708600231783
 20
1214.500823802129
 30
0.0
 11
501.6708600231781
 21
1214.500823802129
 31
0.0
  0
LINE
  5
A36A
330
1F
100
AcDbEntity
  8
0
100
AcDbLine
 10
502.6708600231783
 20
1194.500823802129
 30
0.0
 11
501.6708600231781
 21
1194.500823802129
 31
0.0
  0
LINE
  5
A36B
330
1F
100
AcDbEntity
  8
0
100
AcDbLine
 10
502.6708600231783
 20
1199.500823802128
 30
0.0
 11
501.6708600231781
 21
1199.500823802128
 31
0.0
  0
LINE
  5
A36C
330
1F
100
AcDbEntity
  8
0
 62
     0
 48
0.5
100
AcDbLine
 10
501.6708600231781
 20
1214.000823802126
 30
0.0
 11
501.6708600231781
 21
1195.000823802125
 31
0.0
  0
LINE
  5
A36E
330
1F
100
AcDbEntity
  8
0
 62
     0
 48
0.3
100
AcDbLine
 10
510.1708600231782
 20
1209.500823802128
 30
0.0
 11
510.1708600231782
 21
1204.500823802129
 31
0.0
  0
ARC
  5
A36F
330
1F
100
AcDbEntity
  8
0
 62
     0
 48
0.3
100
AcDbCircle
 10
487.6708600231783
 20
1204.500823802129
 30
0.0
 40
22.5
100
AcDbArc
 50
347.160411228867
 51
12.83958840690441
  0
LINE
  5
A370
330
1F
100
AcDbEntity
  8
0
 62
     0
 48
0.3
100
AcDbLine
 10
510.1708600231782
 20
1196.895793728501
 30
0.0
 11
510.1708600231782
 21
1212.038767448142
 31
0.0
  0
LINE
  5
A371
330
1F
100
AcDbEntity
  8
0
 62
     0
 48
0.3
100
AcDbLine
 10
510.1708600231782
 20
1211.902189954668
 30
0.0
 11
510.1708600231782
 21
1209.500823802128
 31
0.0
  0
ARC
  5
A372
330
1F
100
AcDbEntity
  8
0
 62
     0
 48
0.3
100
AcDbCircle
 10
504.4494099283637
 20
1212.000823965574
 30
0.0
 40
5.732699702968568
100
AcDbArc
 50
334.1450295252206
 51
25.85497047477932
  0
LINE
  5
A373
330
1F
100
AcDbEntity
  8
0
 62
     0
 48
0.3
100
AcDbLine
 10
510.1708600231782
 20
1204.500823802129
 30
0.0
 11
510.1708600231782
 21
1199.500823802128
 31
0.0
  0
ARC
  5
A374
330
1F
100
AcDbEntity
  8
0
 62
     0
 48
0.3
100
AcDbCircle
 10
504.6858101140461
 20
1197.000823802129
 30
0.0
 40
5.520925679459959
100
AcDbArc
 50
333.075075309887
 51
26.924924690113
  0
LINE
  5
A375
330
1F
100
AcDbEntity
  8
0
 62
     0
 48
0.5
100
AcDbLine
 10
37.95653997491524
 20
1155.883106521338
 30
0.0
 11
37.95653997491524
 21
1254.069882093297
 31
0.0
  0
LINE
  5
A376
330
1F
100
AcDbEntity
  8
0
 62
     0
 48
0.5
100
AcDbLine
 10
45.95653997491536
 20
1155.883106521338
 30
0.0
 11
45.95653997491536
 21
1254.069882093297
 31
0.0
  0
LINE
  5
A377
330
1F
100
AcDbEntity
  8
0
 62
     0
 48
0.5
100
AcDbLine
 10
493.6708600231777
 20
1254.069882093297
 30
0.0
 11
493.6708600231776
 21
1155.883106521338
 31
0.0
  0
LINE
  5
A378
330
1F
100
AcDbEntity
  8
0
 62
     0
 48
0.5
100
AcDbLine
 10
501.6708600231778
 20
1254.069882093297
 30
0.0
 11
501.6708600231778
 21
1155.883106521338
 31
0.0
  0
LINE
  5
A37C
330
1F
100
AcDbEntity
  8
0
 62
     0
 48
0.5
100
AcDbLine
 10
343.6708600231777
 20
1094.163595568635
 30
0.0
 11
343.6708600231777
 21
1083.599436165629
 31
0.0
  0
LINE
  5
A37D
330
1F
100
AcDbEntity
  8
0
 62
     0
 48
0.5
100
AcDbLine
 10
345.2708600231777
 20
1094.163595568635
 30
0.0
 11
345.2708600231777
 21
1083.599436165629
 31
0.0
  0
LINE
  5
A4BE
330
1F
100
AcDbEntity
  8
Object
 62
     0
 48
0.5
100
AcDbLine
 10
153.4020273808801
 20
1195.000823802125
 30
0.0
 11
68.40202738088009
 21
1195.000823802125
 31
0.0
  0
LINE
  5
A4BF
330
1F
100
AcDbEntity
  8
Object
 62
     0
 48
0.5
100
AcDbLine
 10
68.40202738088009
 20
1214.000823802125
 30
0.0
 11
153.4020273808802
 21
1214.000823802125
 31
0.0
  0
LINE
  5
A4C0
330
1F
100
AcDbEntity
  8
Object
 62
     0
 48
0.5
100
AcDbLine
 10
68.40202738088009
 20
1212.500823802125
 30
0.0
 11
68.40202738088009
 21
1196.500823802125
 31
0.0
  0
LINE
  5
A4C1
330
1F
100
AcDbEntity
  8
Object
 62
     0
 48
0.5
100
AcDbLine
 10
64.26672829937797
 20
1196.700823802125
 30
0.0
 11
64.26672829937797
 21
1204.500823802125
 31
0.0
  0
LINE
  5
A4C2
330
1F
100
AcDbEntity
  8
Object
 62
     0
 48
0.5
100
AcDbLine
 10
61.76672829937797
 20
1212.300823802125
 30
0.0
 11
61.76672829937797
 21
1196.700823802125
 31
0.0
  0
LINE
  5
A4C4
330
1F
100
AcDbEntity
  8
Object
 62
     0
 48
0.5
100
AcDbLine
 10
61.76672829937797
 20
1196.700823802125
 30
0.0
 11
61.96672829937802
 21
1196.500823802125
 31
0.0
  0
LINE
  5
A4C5
330
1F
100
AcDbEntity
  8
Object
 62
     0
 48
0.5
100
AcDbLine
 10
64.26672829937797
 20
1196.700823802125
 30
0.0
 11
64.06672829937804
 21
1196.500823802125
 31
0.0
  0
LINE
  5
A4C6
330
1F
100
AcDbEntity
  8
Object
 62
     0
 48
0.5
100
AcDbLine
 10
61.96672829937802
 20
1196.500823802125
 30
0.0
 11
64.06672829937804
 21
1196.500823802125
 31
0.0
  0
LINE
  5
A4C8
330
1F
100
AcDbEntity
  8
Object
 62
     0
 48
0.5
100
AcDbLine
 10
68.40202738088009
 20
1195.000823802125
 30
0.0
 11
68.40202738088009
 21
1196.500823802125
 31
0.0
  0
LINE
  5
A4C9
330
1F
100
AcDbEntity
  8
Object
 62
     0
 48
0.5
100
AcDbLine
 10
64.26672829937797
 20
1204.500823802125
 30
0.0
 11
64.26672829937797
 21
1212.300823802125
 31
0.0
  0
LINE
  5
A4CA
330
1F
100
AcDbEntity
  8
Object
 62
     0
 48
0.5
100
AcDbLine
 10
64.26672829937797
 20
1206.572244764856
 30
0.0
 11
61.76672829937797
 21
1204.500823802125
 31
0.0
  0
LINE
  5
A4CB
330
1F
100
AcDbEntity
  8
Object
 62
     0
 48
0.5
100
AcDbLine
 10
61.9667282993779
 20
1212.500823802125
 30
0.0
 11
61.76672829937797
 21
1212.300823802125
 31
0.0
  0
LINE
  5
A4CC
330
1F
100
AcDbEntity
  8
Object
 62
     0
 48
0.5
100
AcDbLine
 10
64.06672829937804
 20
1212.500823802125
 30
0.0
 11
64.26672829937797
 21
1212.300823802125
 31
0.0
  0
LINE
  5
A4CD
330
1F
100
AcDbEntity
  8
Object
 62
     0
 48
0.5
100
AcDbLine
 10
64.06672829937804
 20
1212.500823802125
 30
0.0
 11
61.9667282993779
 21
1212.500823802125
 31
0.0
  0
LINE
  5
A4D3
330
1F
100
AcDbEntity
  8
Object
 62
     0
 48
0.5
100
AcDbLine
 10
68.40202738088009
 20
1214.000823802125
 30
0.0
 11
68.40202738088009
 21
1212.500823802125
 31
0.0
  0
LINE
  5
A4E3
330
1F
100
AcDbEntity
  8
Object
 62
     0
 48
0.5
100
AcDbLine
 10
153.4020273808802
 20
1214.000823802125
 30
0.0
 11
153.4020273808801
 21
1195.000823802125
 31
0.0
  0
LINE
  5
A506
330
1F
100
AcDbEntity
  8
Object
 62
     0
 48
0.5
100
AcDbLine
 10
153.4020273808801
 20
1207.500823802125
 30
0.0
 11
179.5662816365838
 21
1207.500823802125
 31
0.0
  0
LINE
  5
A507
330
1F
100
AcDbEntity
  8
Object
 62
     0
 48
0.5
100
AcDbLine
 10
179.5662816365838
 20
1201.500823802125
 30
0.0
 11
153.4020273808801
 21
1201.500823802125
 31
0.0
  0
LINE
  5
A523
330
1F
100
AcDbEntity
  8
Object
 62
     0
 48
0.5
100
AcDbLine
 10
366.2325386836133
 20
1195.000823802126
 30
0.0
 11
281.2325386836133
 21
1195.000823802126
 31
0.0
  0
LINE
  5
A524
330
1F
100
AcDbEntity
  8
Object
 62
     0
 48
0.5
100
AcDbLine
 10
281.2325386836133
 20
1214.000823802125
 30
0.0
 11
366.2325386836133
 21
1214.000823802126
 31
0.0
  0
LINE
  5
A528
330
1F
100
AcDbEntity
  8
Object
 62
     0
 48
0.5
100
AcDbLine
 10
281.2325386836133
 20
1201.500823802126
 30
0.0
 11
257.1697951756459
 21
1201.500823802126
 31
0.0
  0
LINE
  5
A529
330
1F
100
AcDbEntity
  8
Object
 62
     0
 48
0.5
100
AcDbLine
 10
257.1697951756459
 20
1207.500823802126
 30
0.0
 11
281.2325386836133
 21
1207.500823802126
 31
0.0
  0
LINE
  5
A52A
330
1F
100
AcDbEntity
  8
HIDDEN2
 62
     0
 48
0.5
100
AcDbLine
 10
281.2325386836133
 20
1212.500823802125
 30
0.0
 11
281.2325386836133
 21
1196.500823802126
 31
0.0
  0
LINE
  5
A52B
330
1F
100
AcDbEntity
  8
Object
 62
     0
 48
0.5
100
AcDbLine
 10
281.2325386836133
 20
1195.000823802126
 30
0.0
 11
281.2325386836133
 21
1214.000823802125
 31
0.0
  0
LINE
  5
A52C
330
1F
100
AcDbEntity
  8
HIDDEN2
 62
     0
 48
0.5
100
AcDbLine
 10
281.2325386836133
 20
1204.500823802126
 30
0.0
 11
281.2325386836133
 21
1212.500823802125
 31
0.0
  0
LINE
  5
A52D
330
1F
100
AcDbEntity
  8
0
 62
     0
 48
0.5
100
AcDbLine
 10
281.2325386836133
 20
1207.500823802126
 30
0.0
 11
281.2325386836133
 21
1201.500823802126
 31
0.0
  0
LINE
  5
A53B
330
1F
100
AcDbEntity
  8
Object
 62
     0
 48
0.5
100
AcDbLine
 10
471.1313722821417
 20
1196.500823802125
 30
0.0
 11
446.2313722821417
 21
1196.500823802125
 31
0.0
  0
LINE
  5
A53C
330
1F
100
AcDbEntity
  8
Object
 62
     0
 48
0.5
100
AcDbLine
 10
446.2313722821418
 20
1212.500823802125
 30
0.0
 11
471.1313722821417
 21
1212.500823802125
 31
0.0
  0
LINE
  5
A545
330
1F
100
AcDbEntity
  8
Object
 62
     0
 48
0.5
100
AcDbLine
 10
400.8155705488197
 20
1210.500823802125
 30
0.0
 11
405.8155705488197
 21
1210.500823802125
 31
0.0
  0
LINE
  5
A546
330
1F
100
AcDbEntity
  8
Object
 62
     0
 48
0.5
100
AcDbLine
 10
405.8155705488197
 20
1198.500823802125
 30
0.0
 11
400.8155705488197
 21
1198.500823802125
 31
0.0
  0
LINE
  5
A54B
330
1F
100
AcDbEntity
  8
Object
 62
     0
 48
0.5
100
AcDbLine
 10
366.2325386836133
 20
1207.500823802125
 30
0.0
 11
375.8155705488197
 21
1207.500823802125
 31
0.0
  0
LINE
  5
A54C
330
1F
100
AcDbEntity
  8
Object
 62
     0
 48
0.5
100
AcDbLine
 10
375.8155705488197
 20
1201.500823802125
 30
0.0
 11
366.2325386836133
 21
1201.500823802125
 31
0.0
  0
LINE
  5
A54D
330
1F
100
AcDbEntity
  8
Object
 62
     0
 48
0.5
100
AcDbLine
 10
366.2325386836133
 20
1214.000823802126
 30
0.0
 11
366.2325386836133
 21
1195.000823802126
 31
0.0
  0
LINE
  5
A555
330
1F
100
AcDbEntity
  8
Object
 62
     0
 48
0.5
100
AcDbLine
 10
375.8155705488197
 20
1199.000823802125
 30
0.0
 11
375.8155705488197
 21
1210.000823802126
 31
0.0
  0
LINE
  5
A556
330
1F
100
AcDbEntity
  8
Object
 62
     0
 48
0.5
100
AcDbLine
 10
400.8155705488197
 20
1204.500823802125
 30
0.0
 11
400.8155705488197
 21
1199.000823802125
 31
0.0
  0
LINE
  5
A557
330
1F
100
AcDbEntity
  8
Object
 62
     0
 48
0.5
100
AcDbLine
 10
400.8155705488197
 20
1198.500823802125
 30
0.0
 11
400.8155705488197
 21
1210.500823802125
 31
0.0
  0
LINE
  5
A558
330
1F
100
AcDbEntity
  8
Object
 62
     0
 48
0.5
100
AcDbLine
 10
400.8155705488197
 20
1199.000823802125
 30
0.0
 11
375.8155705488197
 21
1199.000823802125
 31
0.0
  0
LINE
  5
A559
330
1F
100
AcDbEntity
  8
Object
 62
     0
 48
0.5
100
AcDbLine
 10
375.8155705488197
 20
1210.000823802126
 30
0.0
 11
400.8155705488197
 21
1210.000823802126
 31
0.0
  0
LINE
  5
A55A
330
1F
100
AcDbEntity
  8
Object
 62
     0
 48
0.5
100
AcDbLine
 10
375.8155705488197
 20
1204.500823802126
 30
0.0
 11
375.8155705488197
 21
1201.500823802125
 31
0.0
  0
LINE
  5
A55C
330
1F
100
AcDbEntity
  8
Object
 62
     0
 48
0.5
100
AcDbLine
 10
405.8155705488197
 20
1197.000823802125
 30
0.0
 11
405.8155705488197
 21
1212.000823802125
 31
0.0
  0
LINE
  5
A55D
330
1F
100
AcDbEntity
  8
Object
 62
     0
 48
0.5
100
AcDbLine
 10
410.8155705488197
 20
1204.500823802125
 30
0.0
 11
410.8155705488197
 21
1197.000823802125
 31
0.0
  0
LINE
  5
A55E
330
1F
100
AcDbEntity
  8
Object
 62
     0
 48
0.5
100
AcDbLine
 10
405.8155705488197
 20
1204.500823802125
 30
0.0
 11
405.8155705488197
 21
1198.500823802125
 31
0.0
  0
LINE
  5
A55F
330
1F
100
AcDbEntity
  8
Object
 62
     0
 48
0.5
100
AcDbLine
 10
410.8155705488197
 20
1197.000823802125
 30
0.0
 11
405.8155705488197
 21
1197.000823802125
 31
0.0
  0
LINE
  5
A566
330
1F
100
AcDbEntity
  8
Object
 62
     0
 48
0.5
100
AcDbLine
 10
410.8155705488197
 20
1212.000823802125
 30
0.0
 11
410.8155705488197
 21
1204.500823802125
 31
0.0
  0
LINE
  5
A567
330
1F
100
AcDbEntity
  8
Object
 62
     0
 48
0.5
100
AcDbLine
 10
405.8155705488197
 20
1207.500823802125
 30
0.0
 11
410.8155705488197
 21
1207.500823802125
 31
0.0
  0
LINE
  5
A568
330
1F
100
AcDbEntity
  8
Object
 62
     0
 48
0.5
100
AcDbLine
 10
405.8155705488197
 20
1201.500823802125
 30
0.0
 11
410.8155705488197
 21
1201.500823802126
 31
0.0
  0
LINE
  5
A569
330
1F
100
AcDbEntity
  8
Object
 62
     0
 48
0.5
100
AcDbLine
 10
405.8155705488197
 20
1210.500823802125
 30
0.0
 11
405.8155705488197
 21
1204.500823802125
 31
0.0
  0
LINE
  5
A56A
330
1F
100
AcDbEntity
  8
Object
 62
     0
 48
0.5
100
AcDbLine
 10
405.8155705488197
 20
1199.500823802125
 30
0.0
 11
405.8155705488197
 21
1209.500823802125
 31
0.0
  0
LINE
  5
A56B
330
1F
100
AcDbEntity
  8
Object
 62
     0
 48
0.5
100
AcDbLine
 10
405.8155705488197
 20
1212.000823802125
 30
0.0
 11
410.8155705488197
 21
1212.000823802125
 31
0.0
  0
LINE
  5
A56E
330
1F
100
AcDbEntity
  8
Object
 62
     0
 48
0.5
100
AcDbLine
 10
435.0655705488198
 20
1199.500823802125
 30
0.0
 11
435.8155705488197
 21
1200.250823802125
 31
0.0
  0
LINE
  5
A570
330
1F
100
AcDbEntity
  8
Object
 62
     0
 48
0.5
100
AcDbLine
 10
435.8155705488197
 20
1204.500823802125
 30
0.0
 11
435.8155705488197
 21
1200.250823802125
 31
0.0
  0
LINE
  5
A571
330
1F
100
AcDbEntity
  8
Object
 62
     0
 48
0.5
100
AcDbLine
 10
439.2313722821417
 20
1197.500823802125
 30
0.0
 11
439.2313722821417
 21
1211.500823802125
 31
0.0
  0
LINE
  5
A572
330
1F
100
AcDbEntity
  8
Object
 62
     0
 48
0.5
100
AcDbLine
 10
446.2313722821417
 20
1197.500823802125
 30
0.0
 11
439.2313722821417
 21
1197.500823802125
 31
0.0
  0
LINE
  5
A573
330
1F
100
AcDbEntity
  8
Object
 62
     0
 48
0.5
100
AcDbLine
 10
446.2313722821417
 20
1196.500823802125
 30
0.0
 11
446.2313722821417
 21
1197.500823802125
 31
0.0
  0
LINE
  5
A574
330
1F
100
AcDbEntity
  8
Object
 62
     0
 48
0.5
100
AcDbLine
 10
439.2313722821417
 20
1211.500823802125
 30
0.0
 11
446.2313722821418
 21
1211.500823802125
 31
0.0
  0
LINE
  5
A575
330
1F
100
AcDbEntity
  8
Object
 62
     0
 48
0.5
100
AcDbLine
 10
446.2313722821418
 20
1211.500823802125
 30
0.0
 11
446.2313722821418
 21
1212.500823802125
 31
0.0
  0
LINE
  5
A576
330
1F
100
AcDbEntity
  8
Object
 62
     0
 48
0.5
100
AcDbLine
 10
476.7559624138669
 20
1212.232011695502
 30
0.0
 11
476.7559624138669
 21
1196.632011695502
 31
0.0
  0
LINE
  5
A577
330
1F
100
AcDbEntity
  8
Object
 62
     0
 48
0.5
100
AcDbLine
 10
479.2559624138668
 20
1196.632011695502
 30
0.0
 11
479.2559624138668
 21
1204.432011695502
 31
0.0
  0
LINE
  5
A578
330
1F
100
AcDbEntity
  8
Object
 62
     0
 48
0.5
100
AcDbLine
 10
473.7313722821418
 20
1212.500823802125
 30
0.0
 11
473.7313722821419
 21
1196.500823802125
 31
0.0
  0
LINE
  5
A579
330
1F
100
AcDbEntity
  8
Object
 62
     0
 48
0.5
100
AcDbLine
 10
471.8313722821417
 20
1195.700823802125
 30
0.0
 11
471.8313722821417
 21
1213.300823802126
 31
0.0
  0
LINE
  5
A57A
330
1F
100
AcDbEntity
  8
Object
 62
     0
 48
0.5
100
AcDbLine
 10
471.2313722821418
 20
1204.500823802125
 30
0.0
 11
471.2313722821417
 21
1195.700823802125
 31
0.0
  0
LINE
  5
A57B
330
1F
100
AcDbEntity
  8
Object
 62
     0
 48
0.5
100
AcDbLine
 10
476.9559624138668
 20
1196.432011695502
 30
0.0
 11
479.0559624138669
 21
1196.432011695502
 31
0.0
  0
LINE
  5
A57C
330
1F
100
AcDbEntity
  8
Object
 62
     0
 48
0.5
100
AcDbLine
 10
476.7559624138669
 20
1196.632011695502
 30
0.0
 11
476.9559624138668
 21
1196.432011695502
 31
0.0
  0
LINE
  5
A57D
330
1F
100
AcDbEntity
  8
Object
 62
     0
 48
0.5
100
AcDbLine
 10
473.7313722821419
 20
1196.500823802125
 30
0.0
 11
471.9313722821417
 21
1196.500823802125
 31
0.0
  0
LINE
  5
A57E
330
1F
100
AcDbEntity
  8
Object
 62
     0
 48
0.5
100
AcDbLine
 10
471.3313722821417
 20
1195.600823802125
 30
0.0
 11
471.2313722821417
 21
1195.700823802125
 31
0.0
  0
LINE
  5
A57F
330
1F
100
AcDbEntity
  8
Object
 62
     0
 48
0.5
100
AcDbLine
 10
471.7313722821416
 20
1195.600823802125
 30
0.0
 11
471.8313722821417
 21
1195.700823802125
 31
0.0
  0
LINE
  5
A580
330
1F
100
AcDbEntity
  8
Object
 62
     0
 48
0.5
100
AcDbLine
 10
471.1313722821418
 20
1198.000823802125
 30
0.0
 11
471.2313722821417
 21
1198.000823802126
 31
0.0
  0
LINE
  5
A581
330
1F
100
AcDbEntity
  8
Object
 62
     0
 48
0.5
100
AcDbLine
 10
471.3313722821417
 20
1195.600823802125
 30
0.0
 11
471.7313722821416
 21
1195.600823802125
 31
0.0
  0
LINE
  5
A582
330
1F
100
AcDbEntity
  8
Object
 62
     0
 48
0.5
100
AcDbLine
 10
471.1313722821418
 20
1198.000823802125
 30
0.0
 11
471.1313722821418
 21
1196.500823802125
 31
0.0
  0
LINE
  5
A583
330
1F
100
AcDbEntity
  8
Object
 62
     0
 48
0.5
100
AcDbLine
 10
471.9313722821418
 20
1198.000823802125
 30
0.0
 11
471.8313722821417
 21
1198.000823802125
 31
0.0
  0
LINE
  5
A584
330
1F
100
AcDbEntity
  8
Object
 62
     0
 48
0.5
100
AcDbLine
 10
471.9313722821417
 20
1196.500823802125
 30
0.0
 11
471.9313722821418
 21
1198.000823802125
 31
0.0
  0
LINE
  5
A585
330
1F
100
AcDbEntity
  8
Object
 62
     0
 48
0.5
100
AcDbLine
 10
479.2559624138668
 20
1196.632011695502
 30
0.0
 11
479.0559624138669
 21
1196.432011695502
 31
0.0
  0
LINE
  5
A586
330
1F
100
AcDbEntity
  8
Object
 62
     0
 48
0.5
100
AcDbLine
 10
479.0559624138669
 20
1212.432011695502
 30
0.0
 11
476.9559624138667
 21
1212.432011695502
 31
0.0
  0
LINE
  5
A587
330
1F
100
AcDbEntity
  8
Object
 62
     0
 48
0.5
100
AcDbLine
 10
479.2559624138668
 20
1206.503432658233
 30
0.0
 11
476.7559624138669
 21
1204.432011695502
 31
0.0
  0
LINE
  5
A588
330
1F
100
AcDbEntity
  8
Object
 62
     0
 48
0.5
100
AcDbLine
 10
471.2313722821418
 20
1213.300823802126
 30
0.0
 11
471.2313722821418
 21
1204.500823802125
 31
0.0
  0
LINE
  5
A58D
330
1F
100
AcDbEntity
  8
Object
 62
     0
 48
0.5
100
AcDbLine
 10
476.9559624138667
 20
1212.432011695502
 30
0.0
 11
476.7559624138669
 21
1212.232011695502
 31
0.0
  0
LINE
  5
A58E
330
1F
100
AcDbEntity
  8
Object
 62
     0
 48
0.5
100
AcDbLine
 10
471.2313722821418
 20
1213.300823802126
 30
0.0
 11
471.3313722821417
 21
1213.400823802126
 31
0.0
  0
LINE
  5
A58F
330
1F
100
AcDbEntity
  8
Object
 62
     0
 48
0.5
100
AcDbLine
 10
471.7313722821417
 20
1213.400823802126
 30
0.0
 11
471.8313722821417
 21
1213.300823802126
 31
0.0
  0
LINE
  5
A590
330
1F
100
AcDbEntity
  8
Object
 62
     0
 48
0.5
100
AcDbLine
 10
471.2313722821416
 20
1211.000823802125
 30
0.0
 11
471.1313722821418
 21
1211.000823802125
 31
0.0
  0
LINE
  5
A591
330
1F
100
AcDbEntity
  8
Object
 62
     0
 48
0.5
100
AcDbLine
 10
471.7313722821417
 20
1213.400823802126
 30
0.0
 11
471.3313722821417
 21
1213.400823802126
 31
0.0
  0
LINE
  5
A592
330
1F
100
AcDbEntity
  8
Object
 62
     0
 48
0.5
100
AcDbLine
 10
471.9313722821417
 20
1212.500823802125
 30
0.0
 11
473.7313722821418
 21
1212.500823802125
 31
0.0
  0
LINE
  5
A593
330
1F
100
AcDbEntity
  8
Object
 62
     0
 48
0.5
100
AcDbLine
 10
471.1313722821418
 20
1211.000823802125
 30
0.0
 11
471.1313722821417
 21
1212.500823802125
 31
0.0
  0
LINE
  5
A594
330
1F
100
AcDbEntity
  8
Object
 62
     0
 48
0.5
100
AcDbLine
 10
471.9313722821417
 20
1211.000823802125
 30
0.0
 11
471.8313722821418
 21
1211.000823802125
 31
0.0
  0
LINE
  5
A595
330
1F
100
AcDbEntity
  8
Object
 62
     0
 48
0.5
100
AcDbLine
 10
471.9313722821417
 20
1212.500823802125
 30
0.0
 11
471.9313722821417
 21
1211.000823802125
 31
0.0
  0
LINE
  5
A596
330
1F
100
AcDbEntity
  8
Object
 62
     0
 48
0.5
100
AcDbLine
 10
479.2559624138668
 20
1204.432011695502
 30
0.0
 11
479.2559624138668
 21
1212.232011695502
 31
0.0
  0
LINE
  5
A597
330
1F
100
AcDbEntity
  8
Object
 62
     0
 48
0.5
100
AcDbLine
 10
479.0559624138669
 20
1212.432011695502
 30
0.0
 11
479.2559624138668
 21
1212.232011695502
 31
0.0
  0
MTEXT
  5
A61E
330
1F
100
AcDbEntity
  8
0
 62
     0
 48
0.5
100
AcDbMText
 10
361.9290724422962
 20
1199.253139332314
 30
0.0
 40
3.0
 41
43.43939999999999
 71
     1
 72
     5
  1
支柱側
 11
0.0000000000000001
 21
1.0
 31
0.0
 73
     1
 44
1.0
  0
LWPOLYLINE
  5
A67E
330
1F
100
AcDbEntity
  8
0
 48
0.3
100
AcDbPolyline
 90
        2
 70
     0
 43
0.0
 10
417.1807659260535
 20
1199.514771823121
 10
417.8259224457985
 20
1200.780962786467
  0
LINE
  5
A67F
330
1F
100
AcDbEntity
  8
0
 48
0.3
100
AcDbLine
 10
417.4385032501199
 20
1208.173361414657
 30
0.0
 11
417.8259224457985
 21
1200.780962786467
 31
0.0
  0
LWPOLYLINE
  5
A689
330
1F
100
AcDbEntity
  8
0
 48
0.3
100
AcDbPolyline
 90
        2
 70
     0
 43
0.0
 10
414.1807659260535
 20
1199.514771823121
 10
414.8259224457985
 20
1200.780962786467
  0
LWPOLYLINE
  5
A68A
330
1F
100
AcDbEntity
  8
0
 48
0.3
100
AcDbPolyline
 90
        2
 70
     0
 43
0.0
 10
411.1807659260535
 20
1199.514771823121
 10
411.8259224457984
 20
1200.780962786467
  0
LINE
  5
A693
330
1F
100
AcDbEntity
  8
0
 48
0.3
100
AcDbLine
 10
414.4409162809499
 20
1208.09487620732
 30
0.0
 11
414.8283354766283
 21
1200.70247757913
 31
0.0
  0
LINE
  5
A694
330
1F
100
AcDbEntity
  8
0
 48
0.3
100
AcDbLine
 10
415.9443137616075
 20
1208.213247996033
 30
0.0
 11
416.3110940598434
 21
1200.631591513954
 31
0.0
  0
LINE
  5
A695
330
1F
100
AcDbEntity
  8
0
 48
0.3
100
AcDbLine
 10
416.6266354571891
 20
1209.361067170666
 30
0.0
 11
417.1399279399206
 21
1199.514771823121
 31
0.0
  0
LINE
  5
A696
330
1F
100
AcDbEntity
  8
0
 48
0.3
100
AcDbLine
 10
415.1258271547929
 20
1209.361067170666
 30
0.0
 11
415.6402032695592
 21
1199.514771823121
 31
0.0
  0
LINE
  5
A697
330
1F
100
AcDbEntity
  8
0
 48
0.3
100
AcDbLine
 10
411.4409162809499
 20
1208.09487620732
 30
0.0
 11
411.8283354766283
 21
1200.70247757913
 31
0.0
  0
LINE
  5
A698
330
1F
100
AcDbEntity
  8
0
 48
0.3
100
AcDbLine
 10
412.9443137616075
 20
1208.213247996033
 30
0.0
 11
413.3110940598434
 21
1200.631591513954
 31
0.0
  0
LINE
  5
A699
330
1F
100
AcDbEntity
  8
0
 48
0.3
100
AcDbLine
 10
413.626635457189
 20
1209.361067170666
 30
0.0
 11
414.1399279399206
 21
1199.514771823121
 31
0.0
  0
LINE
  5
A69A
330
1F
100
AcDbEntity
  8
0
 48
0.3
100
AcDbLine
 10
412.1258271547929
 20
1209.361067170666
 30
0.0
 11
412.6402032695592
 21
1199.514771823121
 31
0.0
  0
LINE
  5
A69D
330
1F
100
AcDbEntity
  8
0
 48
0.3
100
AcDbLine
 10
410.8155705488197
 20
1205.736796844687
 30
0.0
 11
411.1399279399206
 21
1199.514771823121
 31
0.0
  0
LINE
  5
A6AD
330
1F
100
AcDbEntity
  8
0
 48
0.3
100
AcDbLine
 10
417.0990899537877
 20
1199.514771823121
 30
0.0
 11
417.1807659260535
 21
1199.514771823121
 31
0.0
  0
LINE
  5
A6AE
330
1F
100
AcDbEntity
  8
0
 48
0.3
100
AcDbLine
 10
415.599640613065
 20
1199.514771823121
 30
0.0
 11
415.6807659260535
 21
1199.514771823121
 31
0.0
  0
LWPOLYLINE
  5
A6AF
330
1F
100
AcDbEntity
  8
0
 48
0.3
100
AcDbPolyline
 90
        2
 70
     0
 43
0.0
 10
414.8283354766283
 20
1200.70247757913
 10
415.599640613065
 20
1199.514771823121
  0
LINE
  5
A6B0
330
1F
100
AcDbEntity
  8
0
 48
0.3
100
AcDbLine
 10
414.0990899537877
 20
1199.514771823121
 30
0.0
 11
414.1807659260535
 21
1199.514771823121
 31
0.0
  0
LINE
  5
A6B1
330
1F
100
AcDbEntity
  8
0
 48
0.3
100
AcDbLine
 10
412.599640613065
 20
1199.514771823121
 30
0.0
 11
412.6807659260535
 21
1199.514771823121
 31
0.0
  0
LWPOLYLINE
  5
A6B2
330
1F
100
AcDbEntity
  8
0
 48
0.3
100
AcDbPolyline
 90
        4
 70
     0
 43
0.0
 10
412.6807659260535
 20
1199.514771823121
 10
413.2219934074245
 20
1200.576990563928
 42
-0.5755139880968628
 10
413.3946595718914
 20
1200.586516965214
 10
414.0990899537877
 20
1199.514771823121
  0
LWPOLYLINE
  5
A6B3
330
1F
100
AcDbEntity
  8
0
 48
0.3
100
AcDbPolyline
 90
        2
 70
     0
 43
0.0
 10
411.8283354766283
 20
1200.70247757913
 10
412.5996406130651
 20
1199.514771823121
  0
LWPOLYLINE
  5
A6B4
330
1F
100
AcDbEntity
  8
0
 48
0.3
100
AcDbPolyline
 90
        4
 70
     0
 43
0.0
 10
415.6807659260535
 20
1199.514771823121
 10
416.2219934074245
 20
1200.576990563928
 42
-0.5755139880968628
 10
416.3946595718915
 20
1200.586516965214
 10
417.0990899537877
 20
1199.514771823121
  0
LWPOLYLINE
  5
A6B5
330
1F
100
AcDbEntity
  8
0
 48
0.3
100
AcDbPolyline
 90
        2
 70
     0
 43
0.0
 10
410.8155705488197
 20
1199.946128210881
 10
411.0990899537878
 20
1199.514771823121
  0
LINE
  5
A6B7
330
1F
100
AcDbEntity
  8
0
 48
0.3
100
AcDbLine
 10
411.0990899537878
 20
1199.514771823121
 30
0.0
 11
411.1807659260535
 21
1199.514771823121
 31
0.0
  0
LWPOLYLINE
  5
A6CA
330
1F
100
AcDbEntity
  8
0
 48
0.3
100
AcDbPolyline
 90
        4
 70
     0
 43
0.0
 10
416.5860728006948
 20
1209.361067170666
 10
416.0290006378129
 20
1208.26775149147
 42
-0.5828351435596054
 10
415.8551502137532
 20
1208.260070637461
 10
415.1655815088909
 20
1209.361067170666
  0
LWPOLYLINE
  5
A6CB
330
1F
100
AcDbEntity
  8
0
 48
0.3
100
AcDbPolyline
 90
        2
 70
     0
 43
0.0
 10
415.0860728006948
 20
1209.361067170666
 10
414.4488551470987
 20
1208.110457109425
  0
LWPOLYLINE
  5
A6CC
330
1F
100
AcDbEntity
  8
0
 48
0.3
100
AcDbPolyline
 90
        2
 70
     0
 43
0.0
 10
412.0860728006948
 20
1209.361067170666
 10
411.4488551470986
 20
1208.110457109425
  0
LWPOLYLINE
  5
A6CD
330
1F
100
AcDbEntity
  8
0
 48
0.3
100
AcDbPolyline
 90
        2
 70
     0
 43
0.0
 10
414.4385032501199
 20
1208.173361414657
 10
413.6671981136832
 20
1209.361067170666
  0
LWPOLYLINE
  5
A6CE
330
1F
100
AcDbEntity
  8
0
 48
0.3
100
AcDbPolyline
 90
        4
 70
     0
 43
0.0
 10
413.5860728006949
 20
1209.361067170666
 10
413.029000637813
 20
1208.26775149147
 42
-0.5828351435596054
 10
412.8551502137532
 20
1208.260070637461
 10
412.1655815088908
 20
1209.361067170666
  0
LINE
  5
A6CF
330
1F
100
AcDbEntity
  8
0
 48
0.3
100
AcDbLine
 10
415.0860728006948
 20
1209.361067170666
 30
0.0
 11
415.1655815088909
 21
1209.361067170666
 31
0.0
  0
LINE
  5
A6D0
330
1F
100
AcDbEntity
  8
0
 48
0.3
100
AcDbLine
 10
413.5860728006949
 20
1209.361067170666
 30
0.0
 11
413.6671981136832
 21
1209.361067170666
 31
0.0
  0
LINE
  5
A6D1
330
1F
100
AcDbEntity
  8
0
 48
0.3
100
AcDbLine
 10
412.0860728006948
 20
1209.361067170666
 30
0.0
 11
412.1655815088908
 21
1209.361067170666
 31
0.0
  0
LINE
  5
A6D2
330
1F
100
AcDbEntity
  8
0
 48
0.3
100
AcDbLine
 10
416.5860728006948
 20
1209.361067170666
 30
0.0
 11
416.6671981136833
 21
1209.361067170666
 31
0.0
  0
LWPOLYLINE
  5
A6D3
330
1F
100
AcDbEntity
  8
0
 48
0.3
100
AcDbPolyline
 90
        2
 70
     0
 43
0.0
 10
417.4385032501199
 20
1208.173361414657
 10
416.6671981136833
 20
1209.361067170666
  0
LWPOLYLINE
  5
A6D5
330
1F
100
AcDbEntity
  8
0
 48
0.3
100
AcDbPolyline
 90
        2
 70
     0
 43
0.0
 10
411.43850325012
 20
1208.173361414657
 10
410.8155705488198
 20
1209.132593656204
  0
LINE
  5
A6D6
330
1F
100
AcDbEntity
  8
0
 48
0.3
100
AcDbLine
 10
414.4385032501199
 20
1208.173361414657
 30
0.0
 11
414.8259224457985
 21
1200.780962786467
 31
0.0
  0
LINE
  5
A6D7
330
1F
100
AcDbEntity
  8
0
 48
0.3
100
AcDbLine
 10
411.43850325012
 20
1208.173361414657
 30
0.0
 11
411.8259224457984
 21
1200.780962786467
 31
0.0
  0
LWPOLYLINE
  5
A6D8
330
1F
100
AcDbEntity
  8
0
 48
0.3
100
AcDbPolyline
 90
        4
 70
     0
 43
0.0
 10
434.5757209037161
 20
1209.423971475898
 10
434.0186487408343
 20
1208.330655796702
 42
-0.5828351435596054
 10
433.8447983167745
 20
1208.322974942693
 10
433.1552296119122
 20
1209.423971475898
  0
LWPOLYLINE
  5
A6D9
330
1F
100
AcDbEntity
  8
0
 48
0.3
100
AcDbPolyline
 90
        2
 70
     0
 43
0.0
 10
432.8179835796496
 20
1200.765381884362
 10
433.5892887160864
 20
1199.577676128352
  0
LINE
  5
A6DA
330
1F
100
AcDbEntity
  8
0
 48
0.3
100
AcDbLine
 10
433.1154752578141
 20
1209.423971475898
 30
0.0
 11
433.6298513725806
 21
1199.577676128352
 31
0.0
  0
LWPOLYLINE
  5
A6DB
330
1F
100
AcDbEntity
  8
0
 48
0.3
100
AcDbPolyline
 90
        4
 70
     0
 43
0.0
 10
422.5757209037161
 20
1209.423971475898
 10
422.0186487408343
 20
1208.330655796702
 42
-0.5828351435596054
 10
421.8447983167745
 20
1208.322974942693
 10
421.1552296119122
 20
1209.423971475898
  0
LWPOLYLINE
  5
A6DC
330
1F
100
AcDbEntity
  8
0
 48
0.3
100
AcDbPolyline
 90
        4
 70
     0
 43
0.0
 10
421.6704140290748
 20
1199.577676128352
 10
422.2116415104459
 20
1200.639894869159
 42
-0.5755139880968628
 10
422.3843076749128
 20
1200.649421270446
 10
423.088738056809
 20
1199.577676128352
  0
LINE
  5
A6DD
330
1F
100
AcDbEntity
  8
0
 48
0.3
100
AcDbLine
 10
420.4281513531412
 20
1208.236265719889
 30
0.0
 11
420.8155705488198
 21
1200.843867091699
 31
0.0
  0
LINE
  5
A6DE
330
1F
100
AcDbEntity
  8
0
 48
0.3
100
AcDbLine
 10
419.5757209037161
 20
1209.423971475898
 30
0.0
 11
419.6568462167046
 21
1209.423971475898
 31
0.0
  0
LINE
  5
A6DF
330
1F
100
AcDbEntity
  8
0
 48
0.3
100
AcDbLine
 10
421.0757209037161
 20
1209.423971475898
 30
0.0
 11
421.1552296119122
 21
1209.423971475898
 31
0.0
  0
LWPOLYLINE
  5
A6E0
330
1F
100
AcDbEntity
  8
0
 48
0.3
100
AcDbPolyline
 90
        2
 70
     0
 43
0.0
 10
420.4281513531412
 20
1208.236265719889
 10
419.6568462167046
 20
1209.423971475898
  0
LWPOLYLINE
  5
A6E1
330
1F
100
AcDbEntity
  8
0
 48
0.3
100
AcDbPolyline
 90
        2
 70
     0
 43
0.0
 10
421.0757209037161
 20
1209.423971475898
 10
420.43850325012
 20
1208.173361414657
  0
LINE
  5
A6E2
330
1F
100
AcDbEntity
  8
0
 48
0.3
100
AcDbLine
 10
420.088738056809
 20
1199.577676128352
 30
0.0
 11
420.1704140290748
 21
1199.577676128352
 31
0.0
  0
LWPOLYLINE
  5
A6E3
330
1F
100
AcDbEntity
  8
0
 48
0.3
100
AcDbPolyline
 90
        2
 70
     0
 43
0.0
 10
420.8179835796496
 20
1200.765381884362
 10
421.5892887160864
 20
1199.577676128352
  0
LINE
  5
A6E4
330
1F
100
AcDbEntity
  8
0
 48
0.3
100
AcDbLine
 10
421.5892887160863
 20
1199.577676128352
 30
0.0
 11
421.6704140290748
 21
1199.577676128352
 31
0.0
  0
LINE
  5
A6E5
330
1F
100
AcDbEntity
  8
0
 48
0.3
100
AcDbLine
 10
419.6162835602104
 20
1209.423971475898
 30
0.0
 11
420.1295760429419
 21
1199.577676128352
 31
0.0
  0
LINE
  5
A6E6
330
1F
100
AcDbEntity
  8
0
 48
0.3
100
AcDbLine
 10
421.1154752578141
 20
1209.423971475898
 30
0.0
 11
421.6298513725805
 21
1199.577676128352
 31
0.0
  0
LINE
  5
A6E7
330
1F
100
AcDbEntity
  8
0
 48
0.3
100
AcDbLine
 10
421.9339618646288
 20
1208.276152301265
 30
0.0
 11
422.3007421628647
 21
1200.694495819186
 31
0.0
  0
LINE
  5
A6E8
330
1F
100
AcDbEntity
  8
0
 48
0.3
100
AcDbLine
 10
420.4305643839711
 20
1208.157780512552
 30
0.0
 11
420.8179835796496
 21
1200.765381884362
 31
0.0
  0
LWPOLYLINE
  5
A6E9
330
1F
100
AcDbEntity
  8
0
 48
0.3
100
AcDbPolyline
 90
        2
 70
     0
 43
0.0
 10
420.1704140290748
 20
1199.577676128352
 10
420.8155705488198
 20
1200.843867091699
  0
LWPOLYLINE
  5
A6EA
330
1F
100
AcDbEntity
  8
0
 48
0.3
100
AcDbPolyline
 90
        2
 70
     0
 43
0.0
 10
418.0757209037161
 20
1209.423971475898
 10
417.4385032501199
 20
1208.173361414657
  0
LINE
  5
A6EB
330
1F
100
AcDbEntity
  8
0
 48
0.3
100
AcDbLine
 10
418.0757209037161
 20
1209.423971475898
 30
0.0
 11
418.1552296119122
 21
1209.423971475898
 31
0.0
  0
LWPOLYLINE
  5
A6EC
330
1F
100
AcDbEntity
  8
0
 48
0.3
100
AcDbPolyline
 90
        2
 70
     0
 43
0.0
 10
417.8179835796496
 20
1200.765381884362
 10
418.5892887160863
 20
1199.577676128352
  0
LINE
  5
A6ED
330
1F
100
AcDbEntity
  8
0
 48
0.3
100
AcDbLine
 10
418.5892887160863
 20
1199.577676128352
 30
0.0
 11
418.6704140290748
 21
1199.577676128352
 31
0.0
  0
LINE
  5
A6EF
330
1F
100
AcDbEntity
  8
0
 48
0.3
100
AcDbLine
 10
418.1154752578142
 20
1209.423971475898
 30
0.0
 11
418.6298513725805
 21
1199.577676128352
 31
0.0
  0
LINE
  5
A6F0
330
1F
100
AcDbEntity
  8
0
 48
0.3
100
AcDbLine
 10
418.9339618646288
 20
1208.276152301265
 30
0.0
 11
419.3007421628647
 21
1200.694495819186
 31
0.0
  0
LWPOLYLINE
  5
A6F1
330
1F
100
AcDbEntity
  8
0
 48
0.3
100
AcDbPolyline
 90
        4
 70
     0
 43
0.0
 10
418.6704140290748
 20
1199.577676128352
 10
419.2116415104458
 20
1200.639894869159
 42
-0.5755139880968628
 10
419.3843076749128
 20
1200.649421270446
 10
420.088738056809
 20
1199.577676128352
  0
LWPOLYLINE
  5
A6F2
330
1F
100
AcDbEntity
  8
0
 48
0.3
100
AcDbPolyline
 90
        4
 70
     0
 43
0.0
 10
419.5757209037161
 20
1209.423971475898
 10
419.0186487408342
 20
1208.330655796702
 42
-0.5828351435596054
 10
418.8447983167745
 20
1208.322974942693
 10
418.1552296119122
 20
1209.423971475898
  0
LINE
  5
A6F3
330
1F
100
AcDbEntity
  8
0
 48
0.3
100
AcDbLine
 10
429.4281513531412
 20
1208.236265719889
 30
0.0
 11
429.8155705488198
 21
1200.843867091699
 31
0.0
  0
LINE
  5
A6F4
330
1F
100
AcDbEntity
  8
0
 48
0.3
100
AcDbLine
 10
432.4281513531412
 20
1208.236265719889
 30
0.0
 11
432.8155705488198
 21
1200.843867091699
 31
0.0
  0
LWPOLYLINE
  5
A6F5
330
1F
100
AcDbEntity
  8
0
 48
0.3
100
AcDbPolyline
 90
        2
 70
     0
 43
0.0
 10
429.4281513531412
 20
1208.236265719889
 10
428.6568462167045
 20
1209.423971475898
  0
LINE
  5
A6F6
330
1F
100
AcDbEntity
  8
0
 48
0.3
100
AcDbLine
 10
428.5757209037162
 20
1209.423971475898
 30
0.0
 11
428.6568462167045
 21
1209.423971475898
 31
0.0
  0
LINE
  5
A6F7
330
1F
100
AcDbEntity
  8
0
 48
0.3
100
AcDbLine
 10
430.0757209037161
 20
1209.423971475898
 30
0.0
 11
430.1552296119122
 21
1209.423971475898
 31
0.0
  0
LINE
  5
A6F8
330
1F
100
AcDbEntity
  8
0
 48
0.3
100
AcDbLine
 10
431.5757209037161
 20
1209.423971475898
 30
0.0
 11
431.6568462167046
 21
1209.423971475898
 31
0.0
  0
LINE
  5
A6F9
330
1F
100
AcDbEntity
  8
0
 48
0.3
100
AcDbLine
 10
433.0757209037161
 20
1209.423971475898
 30
0.0
 11
433.1552296119122
 21
1209.423971475898
 31
0.0
  0
LWPOLYLINE
  5
A6FA
330
1F
100
AcDbEntity
  8
0
 48
0.3
100
AcDbPolyline
 90
        4
 70
     0
 43
0.0
 10
431.5757209037161
 20
1209.423971475898
 10
431.0186487408342
 20
1208.330655796702
 42
-0.5828351435596054
 10
430.8447983167745
 20
1208.322974942693
 10
430.1552296119122
 20
1209.423971475898
  0
LWPOLYLINE
  5
A6FB
330
1F
100
AcDbEntity
  8
0
 48
0.3
100
AcDbPolyline
 90
        2
 70
     0
 43
0.0
 10
432.4281513531412
 20
1208.236265719889
 10
431.6568462167046
 20
1209.423971475898
  0
LWPOLYLINE
  5
A6FC
330
1F
100
AcDbEntity
  8
0
 48
0.3
100
AcDbPolyline
 90
        2
 70
     0
 43
0.0
 10
430.0757209037161
 20
1209.423971475898
 10
429.43850325012
 20
1208.173361414657
  0
LWPOLYLINE
  5
A6FD
330
1F
100
AcDbEntity
  8
0
 48
0.3
100
AcDbPolyline
 90
        2
 70
     0
 43
0.0
 10
433.0757209037161
 20
1209.423971475898
 10
432.43850325012
 20
1208.173361414657
  0
LINE
  5
A6FE
330
1F
100
AcDbEntity
  8
0
 48
0.3
100
AcDbLine
 10
423.4281513531413
 20
1208.236265719889
 30
0.0
 11
423.8155705488197
 21
1200.843867091699
 31
0.0
  0
LINE
  5
A6FF
330
1F
100
AcDbEntity
  8
0
 48
0.3
100
AcDbLine
 10
426.4281513531413
 20
1208.236265719889
 30
0.0
 11
426.8155705488197
 21
1200.843867091699
 31
0.0
  0
LWPOLYLINE
  5
A700
330
1F
100
AcDbEntity
  8
0
 48
0.3
100
AcDbPolyline
 90
        2
 70
     0
 43
0.0
 10
423.4281513531413
 20
1208.236265719889
 10
422.6568462167046
 20
1209.423971475898
  0
LINE
  5
A701
330
1F
100
AcDbEntity
  8
0
 48
0.3
100
AcDbLine
 10
422.5757209037161
 20
1209.423971475898
 30
0.0
 11
422.6568462167046
 21
1209.423971475898
 31
0.0
  0
LINE
  5
A702
330
1F
100
AcDbEntity
  8
0
 48
0.3
100
AcDbLine
 10
424.0757209037161
 20
1209.423971475898
 30
0.0
 11
424.1552296119122
 21
1209.423971475898
 31
0.0
  0
LINE
  5
A703
330
1F
100
AcDbEntity
  8
0
 48
0.3
100
AcDbLine
 10
425.5757209037161
 20
1209.423971475898
 30
0.0
 11
425.6568462167045
 21
1209.423971475898
 31
0.0
  0
LINE
  5
A704
330
1F
100
AcDbEntity
  8
0
 48
0.3
100
AcDbLine
 10
427.0757209037161
 20
1209.423971475898
 30
0.0
 11
427.1552296119121
 21
1209.423971475898
 31
0.0
  0
LWPOLYLINE
  5
A705
330
1F
100
AcDbEntity
  8
0
 48
0.3
100
AcDbPolyline
 90
        4
 70
     0
 43
0.0
 10
425.5757209037161
 20
1209.423971475898
 10
425.0186487408343
 20
1208.330655796702
 42
-0.5828351435596054
 10
424.8447983167745
 20
1208.322974942693
 10
424.1552296119122
 20
1209.423971475898
  0
LWPOLYLINE
  5
A706
330
1F
100
AcDbEntity
  8
0
 48
0.3
100
AcDbPolyline
 90
        2
 70
     0
 43
0.0
 10
426.4281513531413
 20
1208.236265719889
 10
425.6568462167045
 20
1209.423971475898
  0
LWPOLYLINE
  5
A707
330
1F
100
AcDbEntity
  8
0
 48
0.3
100
AcDbPolyline
 90
        2
 70
     0
 43
0.0
 10
424.0757209037161
 20
1209.423971475898
 10
423.4385032501199
 20
1208.173361414657
  0
LWPOLYLINE
  5
A708
330
1F
100
AcDbEntity
  8
0
 48
0.3
100
AcDbPolyline
 90
        2
 70
     0
 43
0.0
 10
427.0757209037161
 20
1209.423971475898
 10
426.4385032501199
 20
1208.173361414657
  0
LWPOLYLINE
  5
A709
330
1F
100
AcDbEntity
  8
0
 48
0.3
100
AcDbPolyline
 90
        4
 70
     0
 43
0.0
 10
428.5757209037162
 20
1209.423971475898
 10
428.0186487408342
 20
1208.330655796702
 42
-0.5828351435596054
 10
427.8447983167745
 20
1208.322974942693
 10
427.1552296119121
 20
1209.423971475898
  0
LINE
  5
A70A
330
1F
100
AcDbEntity
  8
0
 48
0.3
100
AcDbLine
 10
429.088738056809
 20
1199.577676128352
 30
0.0
 11
429.1704140290748
 21
1199.577676128352
 31
0.0
  0
LINE
  5
A70B
330
1F
100
AcDbEntity
  8
0
 48
0.3
100
AcDbLine
 10
427.5892887160863
 20
1199.577676128352
 30
0.0
 11
427.6704140290748
 21
1199.577676128352
 31
0.0
  0
LWPOLYLINE
  5
A70C
330
1F
100
AcDbEntity
  8
0
 48
0.3
100
AcDbPolyline
 90
        4
 70
     0
 43
0.0
 10
427.6704140290748
 20
1199.577676128352
 10
428.2116415104458
 20
1200.639894869159
 42
-0.5755139880968628
 10
428.3843076749128
 20
1200.649421270446
 10
429.088738056809
 20
1199.577676128352
  0
LWPOLYLINE
  5
A70D
330
1F
100
AcDbEntity
  8
0
 48
0.3
100
AcDbPolyline
 90
        2
 70
     0
 43
0.0
 10
429.8179835796496
 20
1200.765381884362
 10
430.5892887160863
 20
1199.577676128352
  0
LWPOLYLINE
  5
A70E
330
1F
100
AcDbEntity
  8
0
 48
0.3
100
AcDbPolyline
 90
        4
 70
     0
 43
0.0
 10
430.6704140290748
 20
1199.577676128352
 10
431.2116415104458
 20
1200.639894869159
 42
-0.5755139880968628
 10
431.3843076749128
 20
1200.649421270446
 10
432.088738056809
 20
1199.577676128352
  0
LINE
  5
A70F
330
1F
100
AcDbEntity
  8
0
 48
0.3
100
AcDbLine
 10
430.5892887160863
 20
1199.577676128352
 30
0.0
 11
430.6704140290748
 21
1199.577676128352
 31
0.0
  0
LINE
  5
A710
330
1F
100
AcDbEntity
  8
0
 48
0.3
100
AcDbLine
 10
432.088738056809
 20
1199.577676128352
 30
0.0
 11
432.1704140290748
 21
1199.577676128352
 31
0.0
  0
LINE
  5
A711
330
1F
100
AcDbEntity
  8
0
 48
0.3
100
AcDbLine
 10
423.088738056809
 20
1199.577676128352
 30
0.0
 11
423.1704140290748
 21
1199.577676128352
 31
0.0
  0
LWPOLYLINE
  5
A712
330
1F
100
AcDbEntity
  8
0
 48
0.3
100
AcDbPolyline
 90
        2
 70
     0
 43
0.0
 10
423.8179835796496
 20
1200.765381884362
 10
424.5892887160864
 20
1199.577676128352
  0
LWPOLYLINE
  5
A713
330
1F
100
AcDbEntity
  8
0
 48
0.3
100
AcDbPolyline
 90
        4
 70
     0
 43
0.0
 10
424.6704140290748
 20
1199.577676128352
 10
425.2116415104458
 20
1200.639894869159
 42
-0.5755139880968628
 10
425.3843076749127
 20
1200.649421270446
 10
426.0887380568091
 20
1199.577676128352
  0
LINE
  5
A714
330
1F
100
AcDbEntity
  8
0
 48
0.3
100
AcDbLine
 10
424.5892887160863
 20
1199.577676128352
 30
0.0
 11
424.6704140290748
 21
1199.577676128352
 31
0.0
  0
LINE
  5
A715
330
1F
100
AcDbEntity
  8
0
 48
0.3
100
AcDbLine
 10
426.0887380568091
 20
1199.577676128352
 30
0.0
 11
426.1704140290748
 21
1199.577676128352
 31
0.0
  0
LWPOLYLINE
  5
A716
330
1F
100
AcDbEntity
  8
0
 48
0.3
100
AcDbPolyline
 90
        2
 70
     0
 43
0.0
 10
426.8179835796496
 20
1200.765381884362
 10
427.5892887160863
 20
1199.577676128352
  0
LINE
  5
A717
330
1F
100
AcDbEntity
  8
0
 48
0.3
100
AcDbLine
 10
424.1154752578141
 20
1209.423971475898
 30
0.0
 11
424.6298513725805
 21
1199.577676128352
 31
0.0
  0
LINE
  5
A718
330
1F
100
AcDbEntity
  8
0
 48
0.3
100
AcDbLine
 10
425.6162835602103
 20
1209.423971475898
 30
0.0
 11
426.1295760429419
 21
1199.577676128352
 31
0.0
  0
LINE
  5
A719
330
1F
100
AcDbEntity
  8
0
 48
0.3
100
AcDbLine
 10
424.9339618646287
 20
1208.276152301265
 30
0.0
 11
425.3007421628646
 21
1200.694495819186
 31
0.0
  0
LINE
  5
A71A
330
1F
100
AcDbEntity
  8
0
 48
0.3
100
AcDbLine
 10
423.4305643839712
 20
1208.157780512552
 30
0.0
 11
423.8179835796496
 21
1200.765381884362
 31
0.0
  0
LINE
  5
A71B
330
1F
100
AcDbEntity
  8
0
 48
0.3
100
AcDbLine
 10
427.1154752578142
 20
1209.423971475898
 30
0.0
 11
427.6298513725805
 21
1199.577676128352
 31
0.0
  0
LINE
  5
A71C
330
1F
100
AcDbEntity
  8
0
 48
0.3
100
AcDbLine
 10
428.6162835602103
 20
1209.423971475898
 30
0.0
 11
429.1295760429419
 21
1199.577676128352
 31
0.0
  0
LINE
  5
A71D
330
1F
100
AcDbEntity
  8
0
 48
0.3
100
AcDbLine
 10
427.9339618646288
 20
1208.276152301265
 30
0.0
 11
428.3007421628647
 21
1200.694495819186
 31
0.0
  0
LINE
  5
A71E
330
1F
100
AcDbEntity
  8
0
 48
0.3
100
AcDbLine
 10
426.4305643839712
 20
1208.157780512552
 30
0.0
 11
426.8179835796496
 21
1200.765381884362
 31
0.0
  0
LINE
  5
A71F
330
1F
100
AcDbEntity
  8
0
 48
0.3
100
AcDbLine
 10
430.1154752578141
 20
1209.423971475898
 30
0.0
 11
430.6298513725805
 21
1199.577676128352
 31
0.0
  0
LINE
  5
A720
330
1F
100
AcDbEntity
  8
0
 48
0.3
100
AcDbLine
 10
431.6162835602104
 20
1209.423971475898
 30
0.0
 11
432.1295760429419
 21
1199.577676128352
 31
0.0
  0
LINE
  5
A721
330
1F
100
AcDbEntity
  8
0
 48
0.3
100
AcDbLine
 10
430.9339618646288
 20
1208.276152301265
 30
0.0
 11
431.3007421628647
 21
1200.694495819186
 31
0.0
  0
LINE
  5
A722
330
1F
100
AcDbEntity
  8
0
 48
0.3
100
AcDbLine
 10
429.4305643839712
 20
1208.157780512552
 30
0.0
 11
429.8179835796496
 21
1200.765381884362
 31
0.0
  0
LINE
  5
A723
330
1F
100
AcDbEntity
  8
0
 48
0.3
100
AcDbLine
 10
432.4305643839712
 20
1208.157780512552
 30
0.0
 11
432.8179835796496
 21
1200.765381884362
 31
0.0
  0
LINE
  5
A724
330
1F
100
AcDbEntity
  8
0
 48
0.3
100
AcDbLine
 10
422.6162835602103
 20
1209.423971475898
 30
0.0
 11
423.1295760429419
 21
1199.577676128352
 31
0.0
  0
LWPOLYLINE
  5
A725
330
1F
100
AcDbEntity
  8
0
 48
0.3
100
AcDbPolyline
 90
        2
 70
     0
 43
0.0
 10
423.1704140290748
 20
1199.577676128352
 10
423.8155705488197
 20
1200.843867091699
  0
LWPOLYLINE
  5
A726
330
1F
100
AcDbEntity
  8
0
 48
0.3
100
AcDbPolyline
 90
        2
 70
     0
 43
0.0
 10
426.1704140290748
 20
1199.577676128352
 10
426.8155705488197
 20
1200.843867091699
  0
LWPOLYLINE
  5
A727
330
1F
100
AcDbEntity
  8
0
 48
0.3
100
AcDbPolyline
 90
        2
 70
     0
 43
0.0
 10
429.1704140290748
 20
1199.577676128352
 10
429.8155705488198
 20
1200.843867091699
  0
LWPOLYLINE
  5
A728
330
1F
100
AcDbEntity
  8
0
 48
0.3
100
AcDbPolyline
 90
        2
 70
     0
 43
0.0
 10
432.1704140290748
 20
1199.577676128352
 10
432.8155705488198
 20
1200.843867091699
  0
LWPOLYLINE
  5
A729
330
1F
100
AcDbEntity
  8
0
 48
0.3
100
AcDbPolyline
 90
        2
 70
     0
 43
0.0
 10
435.4281513531413
 20
1208.236265719889
 10
434.6568462167046
 20
1209.423971475898
  0
LINE
  5
A72A
330
1F
100
AcDbEntity
  8
0
 48
0.3
100
AcDbLine
 10
434.5757209037161
 20
1209.423971475898
 30
0.0
 11
434.6568462167046
 21
1209.423971475898
 31
0.0
  0
LWPOLYLINE
  5
A72B
330
1F
100
AcDbEntity
  8
0
 48
0.3
100
AcDbPolyline
 90
        4
 70
     0
 43
0.0
 10
433.6704140290748
 20
1199.577676128352
 10
434.2116415104459
 20
1200.639894869159
 42
-0.5755139880968628
 10
434.3843076749128
 20
1200.649421270446
 10
435.088738056809
 20
1199.577676128352
  0
LINE
  5
A72C
330
1F
100
AcDbEntity
  8
0
 48
0.3
100
AcDbLine
 10
433.5892887160863
 20
1199.577676128352
 30
0.0
 11
433.6704140290748
 21
1199.577676128352
 31
0.0
  0
LINE
  5
A72D
330
1F
100
AcDbEntity
  8
0
 48
0.3
100
AcDbLine
 10
435.088738056809
 20
1199.577676128352
 30
0.0
 11
435.1704140290748
 21
1199.577676128352
 31
0.0
  0
LINE
  5
A72E
330
1F
100
AcDbEntity
  8
0
 48
0.3
100
AcDbLine
 10
434.6162835602103
 20
1209.423971475898
 30
0.0
 11
435.1295760429419
 21
1199.577676128352
 31
0.0
  0
LINE
  5
A72F
330
1F
100
AcDbEntity
  8
0
 48
0.3
100
AcDbLine
 10
433.9339618646288
 20
1208.276152301265
 30
0.0
 11
434.3007421628647
 21
1200.694495819186
 31
0.0
  0
LINE
  5
A730
330
1F
100
AcDbEntity
  8
0
 48
0.3
100
AcDbLine
 10
435.4281513531413
 20
1208.236265719889
 30
0.0
 11
435.8155705488197
 21
1200.843867091699
 31
0.0
  0
LWPOLYLINE
  5
A7A2
330
1F
100
AcDbEntity
  8
0
 48
0.3
100
AcDbPolyline
 90
        2
 70
     0
 43
0.0
 10
54.75747708442002
 20
1208.299170025121
 10
53.98617194798332
 20
1209.48687578113
  0
LWPOLYLINE
  5
A7A3
330
1F
100
AcDbEntity
  8
0
 48
0.3
100
AcDbPolyline
 90
        2
 70
     0
 43
0.0
 10
54.49973976035355
 20
1199.640580433585
 10
55.14489628009849
 20
1200.906771396931
  0
LINE
  5
A7A4
330
1F
100
AcDbEntity
  8
0
 48
0.3
100
AcDbLine
 10
51.75747708441997
 20
1208.299170025121
 30
0.0
 11
52.14489628009847
 21
1200.906771396931
 31
0.0
  0
LWPOLYLINE
  5
A7A5
330
1F
100
AcDbEntity
  8
0
 48
0.3
100
AcDbPolyline
 90
        2
 70
     0
 43
0.0
 10
51.75747708442002
 20
1208.299170025121
 10
50.98617194798332
 20
1209.48687578113
  0
LINE
  5
A7A6
330
1F
100
AcDbEntity
  8
0
 48
0.3
100
AcDbLine
 10
50.90504663499484
 20
1209.48687578113
 30
0.0
 11
50.98617194798328
 21
1209.48687578113
 31
0.0
  0
LINE
  5
A7A7
330
1F
100
AcDbEntity
  8
0
 48
0.3
100
AcDbLine
 10
52.40504663499485
 20
1209.48687578113
 30
0.0
 11
52.48455534319089
 21
1209.48687578113
 31
0.0
  0
LINE
  5
A7A8
330
1F
100
AcDbEntity
  8
0
 48
0.3
100
AcDbLine
 10
53.90504663499496
 20
1209.48687578113
 30
0.0
 11
53.98617194798339
 21
1209.48687578113
 31
0.0
  0
LWPOLYLINE
  5
A7A9
330
1F
100
AcDbEntity
  8
0
 48
0.3
100
AcDbPolyline
 90
        4
 70
     0
 43
0.0
 10
53.90504663499489
 20
1209.48687578113
 10
53.34797447211302
 20
1208.393560101934
 42
-0.5828351435596054
 10
53.17412404805326
 20
1208.385879247925
 10
52.48455534319093
 20
1209.48687578113
  0
LWPOLYLINE
  5
A7AA
330
1F
100
AcDbEntity
  8
0
 48
0.3
100
AcDbPolyline
 90
        2
 70
     0
 43
0.0
 10
52.40504663499489
 20
1209.48687578113
 10
51.76782898139872
 20
1208.236265719889
  0
LINE
  5
A7AB
330
1F
100
AcDbEntity
  8
0
 48
0.3
100
AcDbLine
 10
49.40504663499485
 20
1209.48687578113
 30
0.0
 11
49.48455534319089
 21
1209.48687578113
 31
0.0
  0
LWPOLYLINE
  5
A7AC
330
1F
100
AcDbEntity
  8
0
 48
0.3
100
AcDbPolyline
 90
        4
 70
     0
 43
0.0
 10
50.90504663499489
 20
1209.48687578113
 10
50.34797447211302
 20
1208.393560101934
 42
-0.5828351435596054
 10
50.17412404805326
 20
1208.385879247925
 10
49.48455534319093
 20
1209.48687578113
  0
LINE
  5
A7AD
330
1F
100
AcDbEntity
  8
0
 48
0.3
100
AcDbLine
 10
51.4180637880878
 20
1199.640580433585
 30
0.0
 11
51.49973976035358
 21
1199.640580433585
 31
0.0
  0
LINE
  5
A7AE
330
1F
100
AcDbEntity
  8
0
 48
0.3
100
AcDbLine
 10
49.91861444736503
 20
1199.640580433585
 30
0.0
 11
49.99973976035358
 21
1199.640580433585
 31
0.0
  0
LWPOLYLINE
  5
A7AF
330
1F
100
AcDbEntity
  8
0
 48
0.3
100
AcDbPolyline
 90
        4
 70
     0
 43
0.0
 10
49.99973976035355
 20
1199.640580433585
 10
50.54096724172459
 20
1200.702799174391
 42
-0.5755139880968628
 10
50.71363340619152
 20
1200.712325575678
 10
51.41806378808777
 20
1199.640580433585
  0
LWPOLYLINE
  5
A7B0
330
1F
100
AcDbEntity
  8
0
 48
0.3
100
AcDbPolyline
 90
        2
 70
     0
 43
0.0
 10
52.14730931092836
 20
1200.828286189594
 10
52.91861444736511
 20
1199.640580433585
  0
LWPOLYLINE
  5
A7B1
330
1F
100
AcDbEntity
  8
0
 48
0.3
100
AcDbPolyline
 90
        4
 70
     0
 43
0.0
 10
52.99973976035355
 20
1199.640580433585
 10
53.54096724172459
 20
1200.702799174391
 42
-0.5755139880968628
 10
53.71363340619152
 20
1200.712325575678
 10
54.41806378808777
 20
1199.640580433585
  0
LINE
  5
A7B2
330
1F
100
AcDbEntity
  8
0
 48
0.3
100
AcDbLine
 10
52.91861444736503
 20
1199.640580433585
 30
0.0
 11
52.99973976035357
 21
1199.640580433585
 31
0.0
  0
LINE
  5
A7B3
330
1F
100
AcDbEntity
  8
0
 48
0.3
100
AcDbLine
 10
54.41806378808781
 20
1199.640580433585
 30
0.0
 11
54.49973976035358
 21
1199.640580433585
 31
0.0
  0
LWPOLYLINE
  5
A7B4
330
1F
100
AcDbEntity
  8
0
 48
0.3
100
AcDbPolyline
 90
        2
 70
     0
 43
0.0
 10
49.14730931092837
 20
1200.828286189594
 10
49.91861444736511
 20
1199.640580433585
  0
LINE
  5
A7B5
330
1F
100
AcDbEntity
  8
0
 48
0.3
100
AcDbLine
 10
49.44480098909287
 20
1209.48687578113
 30
0.0
 11
49.95917710385924
 21
1199.640580433585
 31
0.0
  0
LINE
  5
A7B6
330
1F
100
AcDbEntity
  8
0
 48
0.3
100
AcDbLine
 10
50.94560929148906
 20
1209.48687578113
 30
0.0
 11
51.45890177422064
 21
1199.640580433585
 31
0.0
  0
LINE
  5
A7B7
330
1F
100
AcDbEntity
  8
0
 48
0.3
100
AcDbLine
 10
50.26328759590751
 20
1208.339056606497
 30
0.0
 11
50.63006789414339
 21
1200.757400124417
 31
0.0
  0
LINE
  5
A7B8
330
1F
100
AcDbEntity
  8
0
 48
0.3
100
AcDbLine
 10
52.44480098909287
 20
1209.48687578113
 30
0.0
 11
52.95917710385925
 21
1199.640580433585
 31
0.0
  0
LINE
  5
A7B9
330
1F
100
AcDbEntity
  8
0
 48
0.3
100
AcDbLine
 10
53.94560929148906
 20
1209.48687578113
 30
0.0
 11
54.45890177422064
 21
1199.640580433585
 31
0.0
  0
LINE
  5
A7BA
330
1F
100
AcDbEntity
  8
0
 48
0.3
100
AcDbLine
 10
53.26328759590751
 20
1208.339056606497
 30
0.0
 11
53.63006789414339
 21
1200.757400124417
 31
0.0
  0
LWPOLYLINE
  5
A7BC
330
1F
100
AcDbEntity
  8
0
 48
0.3
100
AcDbPolyline
 90
        2
 70
     0
 43
0.0
 10
51.49973976035354
 20
1199.640580433585
 10
52.14489628009849
 20
1200.906771396931
  0
LINE
  5
A7C3
330
1F
100
AcDbEntity
  8
0
 48
0.3
100
AcDbLine
 10
46.40504663499484
 20
1209.48687578113
 30
0.0
 11
46.48455534319089
 21
1209.48687578113
 31
0.0
  0
LINE
  5
A7C4
330
1F
100
AcDbEntity
  8
0
 48
0.3
100
AcDbLine
 10
47.90504663499485
 20
1209.48687578113
 30
0.0
 11
47.98617194798327
 21
1209.48687578113
 31
0.0
  0
LWPOLYLINE
  5
A7C5
330
1F
100
AcDbEntity
  8
0
 48
0.3
100
AcDbPolyline
 90
        4
 70
     0
 43
0.0
 10
47.90504663499489
 20
1209.48687578113
 10
47.34797447211302
 20
1208.393560101934
 42
-0.5828351435596054
 10
47.17412404805325
 20
1208.385879247925
 10
46.48455534319093
 20
1209.48687578113
  0
LWPOLYLINE
  5
A7C6
330
1F
100
AcDbEntity
  8
0
 48
0.3
100
AcDbPolyline
 90
        2
 70
     0
 43
0.0
 10
48.75747708442002
 20
1208.299170025121
 10
47.98617194798332
 20
1209.48687578113
  0
LWPOLYLINE
  5
A7C7
330
1F
100
AcDbEntity
  8
0
 48
0.3
100
AcDbPolyline
 90
        2
 70
     0
 43
0.0
 10
46.40504663499489
 20
1209.48687578113
 10
45.95653997491534
 20
1208.606631898269
  0
LWPOLYLINE
  5
A7C9
330
1F
100
AcDbEntity
  8
0
 48
0.3
100
AcDbPolyline
 90
        2
 70
     0
 43
0.0
 10
46.14730931092836
 20
1200.828286189594
 10
46.91861444736511
 20
1199.640580433585
  0
LWPOLYLINE
  5
A7CA
330
1F
100
AcDbEntity
  8
0
 48
0.3
100
AcDbPolyline
 90
        4
 70
     0
 43
0.0
 10
46.99973976035354
 20
1199.640580433585
 10
47.54096724172458
 20
1200.702799174391
 42
-0.5755139880968628
 10
47.71363340619152
 20
1200.712325575678
 10
48.41806378808778
 20
1199.640580433585
  0
LINE
  5
A7CB
330
1F
100
AcDbEntity
  8
0
 48
0.3
100
AcDbLine
 10
46.91861444736503
 20
1199.640580433585
 30
0.0
 11
46.99973976035358
 21
1199.640580433585
 31
0.0
  0
LINE
  5
A7CC
330
1F
100
AcDbEntity
  8
0
 48
0.3
100
AcDbLine
 10
48.4180637880878
 20
1199.640580433585
 30
0.0
 11
48.49973976035357
 21
1199.640580433585
 31
0.0
  0
LINE
  5
A7CD
330
1F
100
AcDbEntity
  8
0
 48
0.3
100
AcDbLine
 10
46.44480098909286
 20
1209.48687578113
 30
0.0
 11
46.95917710385924
 21
1199.640580433585
 31
0.0
  0
LINE
  5
A7CE
330
1F
100
AcDbEntity
  8
0
 48
0.3
100
AcDbLine
 10
47.94560929148906
 20
1209.48687578113
 30
0.0
 11
48.45890177422063
 21
1199.640580433585
 31
0.0
  0
LINE
  5
A7CF
330
1F
100
AcDbEntity
  8
0
 48
0.3
100
AcDbLine
 10
47.26328759590751
 20
1208.339056606497
 30
0.0
 11
47.63006789414339
 21
1200.757400124417
 31
0.0
  0
LINE
  5
A7D0
330
1F
100
AcDbEntity
  8
0
 48
0.3
100
AcDbLine
 10
45.95653997491536
 20
1204.468381965885
 30
0.0
 11
46.14730931092833
 21
1200.828286189594
 31
0.0
  0
LWPOLYLINE
  5
A7D2
330
1F
100
AcDbEntity
  8
0
 48
0.3
100
AcDbPolyline
 90
        2
 70
     0
 43
0.0
 10
45.95653997491532
 20
1200.5371013336
 10
46.14489628009849
 20
1200.906771396931
  0
LINE
  5
A7D3
330
1F
100
AcDbEntity
  8
0
 48
0.3
100
AcDbLine
 10
48.75747708441998
 20
1208.299170025121
 30
0.0
 11
49.14489628009846
 21
1200.906771396931
 31
0.0
  0
LWPOLYLINE
  5
A7D4
330
1F
100
AcDbEntity
  8
0
 48
0.3
100
AcDbPolyline
 90
        2
 70
     0
 43
0.0
 10
49.40504663499488
 20
1209.48687578113
 10
48.76782898139872
 20
1208.236265719889
  0
LWPOLYLINE
  5
A7D6
330
1F
100
AcDbEntity
  8
0
 48
0.3
100
AcDbPolyline
 90
        2
 70
     0
 43
0.0
 10
48.49973976035355
 20
1199.640580433585
 10
49.1448962800985
 20
1200.906771396931
  0
LWPOLYLINE
  5
A7D7
330
1F
100
AcDbEntity
  8
0
 48
0.3
100
AcDbPolyline
 90
        4
 70
     0
 43
0.0
 10
56.90504663499488
 20
1209.48687578113
 10
56.34797447211302
 20
1208.393560101934
 42
-0.5828351435596054
 10
56.17412404805325
 20
1208.385879247925
 10
55.48455534319093
 20
1209.48687578113
  0
LWPOLYLINE
  5
A7D8
330
1F
100
AcDbEntity
  8
0
 48
0.3
100
AcDbPolyline
 90
        2
 70
     0
 43
0.0
 10
55.14730931092836
 20
1200.828286189594
 10
55.91861444736512
 20
1199.640580433585
  0
LINE
  5
A7D9
330
1F
100
AcDbEntity
  8
0
 48
0.3
100
AcDbLine
 10
55.44480098909298
 20
1209.48687578113
 30
0.0
 11
55.95917710385925
 21
1199.640580433585
 31
0.0
  0
LINE
  5
A7DA
330
1F
100
AcDbEntity
  8
0
 48
0.3
100
AcDbLine
 10
54.75747708442009
 20
1208.299170025121
 30
0.0
 11
55.14489628009846
 21
1200.906771396931
 31
0.0
  0
LINE
  5
A7DB
330
1F
100
AcDbEntity
  8
0
 48
0.3
100
AcDbLine
 10
55.40504663499496
 20
1209.48687578113
 30
0.0
 11
55.484555343191
 21
1209.48687578113
 31
0.0
  0
LWPOLYLINE
  5
A7DC
330
1F
100
AcDbEntity
  8
0
 48
0.3
100
AcDbPolyline
 90
        2
 70
     0
 43
0.0
 10
55.40504663499489
 20
1209.48687578113
 10
54.76782898139872
 20
1208.236265719889
  0
LWPOLYLINE
  5
A7DE
330
1F
100
AcDbEntity
  8
0
 48
0.3
100
AcDbPolyline
 90
        2
 70
     0
 43
0.0
 10
57.75747708442001
 20
1208.299170025121
 10
56.98617194798332
 20
1209.48687578113
  0
LINE
  5
A7DF
330
1F
100
AcDbEntity
  8
0
 48
0.3
100
AcDbLine
 10
56.90504663499496
 20
1209.48687578113
 30
0.0
 11
56.98617194798339
 21
1209.48687578113
 31
0.0
  0
LWPOLYLINE
  5
A7E0
330
1F
100
AcDbEntity
  8
0
 48
0.3
100
AcDbPolyline
 90
        4
 70
     0
 43
0.0
 10
55.99973976035355
 20
1199.640580433585
 10
56.54096724172458
 20
1200.702799174391
 42
-0.5755139880968628
 10
56.71363340619151
 20
1200.712325575678
 10
57.41806378808778
 20
1199.640580433585
  0
LINE
  5
A7E1
330
1F
100
AcDbEntity
  8
0
 48
0.3
100
AcDbLine
 10
55.91861444736503
 20
1199.640580433585
 30
0.0
 11
55.99973976035357
 21
1199.640580433585
 31
0.0
  0
LINE
  5
A7E2
330
1F
100
AcDbEntity
  8
0
 48
0.3
100
AcDbLine
 10
57.41806378808781
 20
1199.640580433585
 30
0.0
 11
57.49973976035358
 21
1199.640580433585
 31
0.0
  0
LINE
  5
A7E3
330
1F
100
AcDbEntity
  8
0
 48
0.3
100
AcDbLine
 10
56.94560929148906
 20
1209.48687578113
 30
0.0
 11
57.45890177422063
 21
1199.640580433585
 31
0.0
  0
LINE
  5
A7E4
330
1F
100
AcDbEntity
  8
0
 48
0.3
100
AcDbLine
 10
56.26328759590752
 20
1208.339056606497
 30
0.0
 11
56.63006789414339
 21
1200.757400124417
 31
0.0
  0
LINE
  5
A7E5
330
1F
100
AcDbEntity
  8
0
 48
0.3
100
AcDbLine
 10
57.75747708442009
 20
1208.299170025121
 30
0.0
 11
57.95653997491536
 21
1204.500823802126
 31
0.0
  0
LWPOLYLINE
  5
A7E6
330
1F
100
AcDbEntity
  8
0
 48
0.3
100
AcDbPolyline
 90
        2
 70
     0
 43
0.0
 10
57.49973976035355
 20
1199.640580433585
 10
57.95653997491532
 20
1200.5371013336
  0
LINE
  5
A7EA
330
1F
100
AcDbEntity
  8
0
 62
     0
 48
0.5
100
AcDbLine
 10
45.95653997491536
 20
1237.544436758631
 30
0.0
 11
45.95653997491536
 21
1237.544436758631
 31
0.0
  0
LINE
  5
A7F7
330
1F
100
AcDbEntity
  8
0
 48
0.3
100
AcDbLine
 10
485.528605669984
 20
1209.723133214253
 30
0.0
 11
486.0429817847504
 21
1199.876837866707
 31
0.0
  0
LWPOLYLINE
  5
A7F8
330
1F
100
AcDbEntity
  8
0
 48
0.3
100
AcDbPolyline
 90
        2
 70
     0
 43
0.0
 10
485.2311139918195
 20
1201.064543622717
 10
486.0024191282563
 20
1199.876837866707
  0
LWPOLYLINE
  5
A7F9
330
1F
100
AcDbEntity
  8
0
 48
0.3
100
AcDbPolyline
 90
        4
 70
     0
 43
0.0
 10
486.988851315886
 20
1209.723133214253
 10
486.4317791530042
 20
1208.629817535057
 42
-0.5828351435596054
 10
486.2579287289443
 20
1208.622136681048
 10
485.5683600240821
 20
1209.723133214253
  0
LWPOLYLINE
  5
A84C
330
1F
100
AcDbEntity
  8
0
 48
0.3
100
AcDbPolyline
 90
        2
 70
     0
 43
0.0
 10
483.988851315886
 20
1209.723133214253
 10
483.6708600231777
 20
1209.099040162525
  0
LWPOLYLINE
  5
A84D
330
1F
100
AcDbEntity
  8
0
 48
0.3
100
AcDbPolyline
 90
        3
 70
     0
 43
0.0
 10
483.6708600231777
 20
1200.983934467007
 42
-0.3746788278168931
 10
483.7974380870827
 20
1200.948583008801
 10
484.5018684689789
 20
1199.876837866707
  0
LINE
  5
A84E
330
1F
100
AcDbEntity
  8
0
 48
0.3
100
AcDbLine
 10
483.6708600231777
 20
1201.882763090648
 30
0.0
 11
483.7138725750346
 21
1200.993657557541
 31
0.0
  0
LWPOLYLINE
  5
A853
330
1F
100
AcDbEntity
  8
0
 48
0.3
100
AcDbPolyline
 90
        2
 70
     0
 43
0.0
 10
484.5835444412447
 20
1199.876837866707
 10
485.2287009609896
 20
1201.143028830054
  0
LINE
  5
A854
330
1F
100
AcDbEntity
  8
0
 48
0.3
100
AcDbLine
 10
484.8436947961411
 20
1208.456942250907
 30
0.0
 11
485.2311139918195
 21
1201.064543622717
 31
0.0
  0
LINE
  5
A855
330
1F
100
AcDbEntity
  8
0
 48
0.3
100
AcDbLine
 10
484.0294139723802
 20
1209.723133214253
 30
0.0
 11
484.5427064551118
 21
1199.876837866707
 31
0.0
  0
LINE
  5
A856
330
1F
100
AcDbEntity
  8
0
 48
0.3
100
AcDbLine
 10
484.5018684689789
 20
1199.876837866707
 30
0.0
 11
484.5835444412447
 21
1199.876837866707
 31
0.0
  0
LWPOLYLINE
  5
A857
330
1F
100
AcDbEntity
  8
0
 48
0.3
100
AcDbPolyline
 90
        2
 70
     0
 43
0.0
 10
485.4888513158861
 20
1209.723133214253
 10
484.8516336622899
 20
1208.472523153012
  0
LWPOLYLINE
  5
A858
330
1F
100
AcDbEntity
  8
0
 48
0.3
100
AcDbPolyline
 90
        2
 70
     0
 43
0.0
 10
484.8412817653112
 20
1208.535427458244
 10
484.0699766288745
 20
1209.723133214253
  0
LINE
  5
A859
330
1F
100
AcDbEntity
  8
0
 48
0.3
100
AcDbLine
 10
485.4888513158861
 20
1209.723133214253
 30
0.0
 11
485.5683600240821
 21
1209.723133214253
 31
0.0
  0
LINE
  5
A85A
330
1F
100
AcDbEntity
  8
0
 48
0.3
100
AcDbLine
 10
483.988851315886
 20
1209.723133214253
 30
0.0
 11
484.0699766288745
 21
1209.723133214253
 31
0.0
  0
LINE
  5
A85B
330
1F
100
AcDbEntity
  8
0
 48
0.3
100
AcDbLine
 10
484.8412817653112
 20
1208.535427458244
 30
0.0
 11
485.2287009609896
 21
1201.143028830054
 31
0.0
  0
LWPOLYLINE
  5
A869
330
1F
100
AcDbEntity
  8
0
 48
0.3
100
AcDbPolyline
 90
        2
 70
     0
 43
0.0
 10
490.5835444412447
 20
1199.876837866707
 10
491.2287009609896
 20
1201.143028830054
  0
LINE
  5
A86A
330
1F
100
AcDbEntity
  8
0
 48
0.3
100
AcDbLine
 10
490.8436947961411
 20
1208.456942250907
 30
0.0
 11
491.2311139918195
 21
1201.064543622717
 31
0.0
  0
LWPOLYLINE
  5
A86B
330
1F
100
AcDbEntity
  8
0
 48
0.3
100
AcDbPolyline
 90
        2
 70
     0
 43
0.0
 10
491.488851315886
 20
1209.723133214253
 10
490.8516336622898
 20
1208.472523153012
  0
LINE
  5
A86C
330
1F
100
AcDbEntity
  8
0
 48
0.3
100
AcDbLine
 10
490.8412817653111
 20
1208.535427458244
 30
0.0
 11
491.2287009609896
 21
1201.143028830054
 31
0.0
  0
LWPOLYLINE
  5
A86D
330
1F
100
AcDbEntity
  8
0
 48
0.3
100
AcDbPolyline
 90
        2
 70
     0
 43
0.0
 10
487.5835444412447
 20
1199.876837866707
 10
488.2287009609896
 20
1201.143028830054
  0
LINE
  5
A86E
330
1F
100
AcDbEntity
  8
0
 48
0.3
100
AcDbLine
 10
487.0294139723802
 20
1209.723133214253
 30
0.0
 11
487.5427064551118
 21
1199.876837866707
 31
0.0
  0
LINE
  5
A86F
330
1F
100
AcDbEntity
  8
0
 48
0.3
100
AcDbLine
 10
487.8436947961411
 20
1208.456942250907
 30
0.0
 11
488.2311139918195
 21
1201.064543622717
 31
0.0
  0
LINE
  5
A870
330
1F
100
AcDbEntity
  8
0
 48
0.3
100
AcDbLine
 10
489.3470922767987
 20
1208.57531403962
 30
0.0
 11
489.7138725750346
 21
1200.993657557541
 31
0.0
  0
LINE
  5
A871
330
1F
100
AcDbEntity
  8
0
 48
0.3
100
AcDbLine
 10
490.0294139723802
 20
1209.723133214253
 30
0.0
 11
490.5427064551118
 21
1199.876837866707
 31
0.0
  0
LINE
  5
A872
330
1F
100
AcDbEntity
  8
0
 48
0.3
100
AcDbLine
 10
488.5286056699841
 20
1209.723133214253
 30
0.0
 11
489.0429817847504
 21
1199.876837866707
 31
0.0
  0
LINE
  5
A873
330
1F
100
AcDbEntity
  8
0
 48
0.3
100
AcDbLine
 10
490.5018684689789
 20
1199.876837866707
 30
0.0
 11
490.5835444412447
 21
1199.876837866707
 31
0.0
  0
LINE
  5
A874
330
1F
100
AcDbEntity
  8
0
 48
0.3
100
AcDbLine
 10
489.0024191282562
 20
1199.876837866707
 30
0.0
 11
489.0835444412447
 21
1199.876837866707
 31
0.0
  0
LWPOLYLINE
  5
A875
330
1F
100
AcDbEntity
  8
0
 48
0.3
100
AcDbPolyline
 90
        4
 70
     0
 43
0.0
 10
489.0835444412447
 20
1199.876837866707
 10
489.6247719226157
 20
1200.939056607515
 42
-0.5755139880968628
 10
489.7974380870826
 20
1200.948583008801
 10
490.5018684689789
 20
1199.876837866707
  0
LWPOLYLINE
  5
A876
330
1F
100
AcDbEntity
  8
0
 48
0.3
100
AcDbPolyline
 90
        2
 70
     0
 43
0.0
 10
488.2311139918195
 20
1201.064543622717
 10
489.0024191282562
 20
1199.876837866707
  0
LINE
  5
A877
330
1F
100
AcDbEntity
  8
0
 48
0.3
100
AcDbLine
 10
487.501868468979
 20
1199.876837866707
 30
0.0
 11
487.5835444412447
 21
1199.876837866707
 31
0.0
  0
LWPOLYLINE
  5
A878
330
1F
100
AcDbEntity
  8
0
 48
0.3
100
AcDbPolyline
 90
        2
 70
     0
 43
0.0
 10
488.488851315886
 20
1209.723133214253
 10
487.8516336622898
 20
1208.472523153012
  0
LWPOLYLINE
  5
A879
330
1F
100
AcDbEntity
  8
0
 48
0.3
100
AcDbPolyline
 90
        2
 70
     0
 43
0.0
 10
490.8412817653111
 20
1208.535427458244
 10
490.0699766288744
 20
1209.723133214253
  0
LWPOLYLINE
  5
A87A
330
1F
100
AcDbEntity
  8
0
 48
0.3
100
AcDbPolyline
 90
        4
 70
     0
 43
0.0
 10
489.988851315886
 20
1209.723133214253
 10
489.4317791530041
 20
1208.629817535057
 42
-0.5828351435596054
 10
489.2579287289444
 20
1208.622136681048
 10
488.568360024082
 20
1209.723133214253
  0
LINE
  5
A87B
330
1F
100
AcDbEntity
  8
0
 48
0.3
100
AcDbLine
 10
489.988851315886
 20
1209.723133214253
 30
0.0
 11
490.0699766288744
 21
1209.723133214253
 31
0.0
  0
LINE
  5
A87C
330
1F
100
AcDbEntity
  8
0
 48
0.3
100
AcDbLine
 10
488.488851315886
 20
1209.723133214253
 30
0.0
 11
488.568360024082
 21
1209.723133214253
 31
0.0
  0
LINE
  5
A87D
330
1F
100
AcDbEntity
  8
0
 48
0.3
100
AcDbLine
 10
486.988851315886
 20
1209.723133214253
 30
0.0
 11
487.0699766288744
 21
1209.723133214253
 31
0.0
  0
LWPOLYLINE
  5
A87E
330
1F
100
AcDbEntity
  8
0
 48
0.3
100
AcDbPolyline
 90
        2
 70
     0
 43
0.0
 10
487.8412817653112
 20
1208.535427458244
 10
487.0699766288744
 20
1209.723133214253
  0
LINE
  5
A87F
330
1F
100
AcDbEntity
  8
0
 48
0.3
100
AcDbLine
 10
487.8412817653112
 20
1208.535427458244
 30
0.0
 11
488.2287009609896
 21
1201.143028830054
 31
0.0
  0
LINE
  5
A880
330
1F
100
AcDbEntity
  8
0
 48
0.3
100
AcDbLine
 10
486.3470922767986
 20
1208.57531403962
 30
0.0
 11
486.7138725750345
 21
1200.993657557541
 31
0.0
  0
LINE
  5
A881
330
1F
100
AcDbEntity
  8
0
 48
0.3
100
AcDbLine
 10
486.0024191282562
 20
1199.876837866707
 30
0.0
 11
486.0835444412447
 21
1199.876837866707
 31
0.0
  0
LWPOLYLINE
  5
A882
330
1F
100
AcDbEntity
  8
0
 48
0.3
100
AcDbPolyline
 90
        4
 70
     0
 43
0.0
 10
486.0835444412447
 20
1199.876837866707
 10
486.6247719226158
 20
1200.939056607515
 42
-0.5755139880968628
 10
486.7974380870826
 20
1200.948583008801
 10
487.501868468979
 20
1199.876837866707
  0
LWPOLYLINE
  5
A883
330
1F
100
AcDbEntity
  8
0
 48
0.3
100
AcDbPolyline
 90
        2
 70
     0
 43
0.0
 10
493.5835444412447
 20
1199.876837866707
 10
493.6708600231777
 20
1200.048204345104
  0
LINE
  5
A888
330
1F
100
AcDbEntity
  8
0
 48
0.3
100
AcDbLine
 10
492.3470922767987
 20
1208.57531403962
 30
0.0
 11
492.7138725750346
 21
1200.993657557541
 31
0.0
  0
LINE
  5
A889
330
1F
100
AcDbEntity
  8
0
 48
0.3
100
AcDbLine
 10
493.0294139723803
 20
1209.723133214253
 30
0.0
 11
493.5427064551118
 21
1199.876837866707
 31
0.0
  0
LINE
  5
A88A
330
1F
100
AcDbEntity
  8
0
 48
0.3
100
AcDbLine
 10
491.528605669984
 20
1209.723133214253
 30
0.0
 11
492.0429817847504
 21
1199.876837866707
 31
0.0
  0
LWPOLYLINE
  5
A88B
330
1F
100
AcDbEntity
  8
0
 48
0.3
100
AcDbPolyline
 90
        2
 70
     0
 43
0.0
 10
491.2311139918195
 20
1201.064543622717
 10
492.0024191282562
 20
1199.876837866707
  0
LWPOLYLINE
  5
A890
330
1F
100
AcDbEntity
  8
0
 48
0.3
100
AcDbPolyline
 90
        4
 70
     0
 43
0.0
 10
492.0835444412447
 20
1199.876837866707
 10
492.6247719226157
 20
1200.939056607515
 42
-0.5755139880968628
 10
492.7974380870827
 20
1200.948583008801
 10
493.5018684689789
 20
1199.876837866707
  0
LINE
  5
A891
330
1F
100
AcDbEntity
  8
0
 48
0.3
100
AcDbLine
 10
492.0024191282562
 20
1199.876837866707
 30
0.0
 11
492.0835444412447
 21
1199.876837866707
 31
0.0
  0
LINE
  5
A892
330
1F
100
AcDbEntity
  8
0
 48
0.3
100
AcDbLine
 10
493.5018684689789
 20
1199.876837866707
 30
0.0
 11
493.5835444412447
 21
1199.876837866707
 31
0.0
  0
LWPOLYLINE
  5
A893
330
1F
100
AcDbEntity
  8
0
 48
0.3
100
AcDbPolyline
 90
        4
 70
     0
 43
0.0
 10
492.988851315886
 20
1209.723133214253
 10
492.4317791530041
 20
1208.629817535057
 42
-0.5828351435596054
 10
492.2579287289444
 20
1208.622136681048
 10
491.5683600240821
 20
1209.723133214253
  0
LINE
  5
A894
330
1F
100
AcDbEntity
  8
0
 48
0.3
100
AcDbLine
 10
491.488851315886
 20
1209.723133214253
 30
0.0
 11
491.5683600240821
 21
1209.723133214253
 31
0.0
  0
LINE
  5
A899
330
1F
100
AcDbEntity
  8
0
 48
0.3
100
AcDbLine
 10
492.988851315886
 20
1209.723133214253
 30
0.0
 11
493.0699766288745
 21
1209.723133214253
 31
0.0
  0
LWPOLYLINE
  5
A89A
330
1F
100
AcDbEntity
  8
0
 48
0.3
100
AcDbPolyline
 90
        2
 70
     0
 43
0.0
 10
493.6708600231777
 20
1208.797853928028
 10
493.0699766288745
 20
1209.723133214253
  0
LINE
  5
A89D
330
1F
100
AcDbEntity
  8
0
 62
     0
 48
0.5
100
AcDbLine
 10
501.6708600231778
 20
1209.660228909021
 30
0.0
 11
501.6708600231779
 21
1199.813933561476
 31
0.0
  0
LINE
  5
A8AC
330
1F
100
AcDbEntity
  8
0
 62
     0
 48
0.5
100
AcDbLine
 10
483.6708600231777
 20
1209.099040162525
 30
0.0
 11
483.6708600231777
 21
1201.882763090648
 31
0.0
  0
LINE
  5
A8AE
330
1F
100
AcDbEntity
  8
0
 62
     0
 48
0.5
100
AcDbLine
 10
435.4281513531413
 20
1208.236265719889
 30
0.0
 11
435.8155705488197
 21
1207.702100304576
 31
0.0
  0
LINE
  5
A8AF
330
1F
100
AcDbEntity
  8
0
 62
     0
 48
0.5
100
AcDbLine
 10
435.8155705488197
 20
1207.702100304576
 30
0.0
 11
435.8155705488197
 21
1200.843867091699
 31
0.0
  0
LINE
  5
A8B0
330
1F
100
AcDbEntity
  8
0
 62
     0
 48
0.5
100
AcDbLine
 10
410.8155705488198
 20
1209.132593656204
 30
0.0
 11
410.8155705488197
 21
1199.946128210881
 31
0.0
  0
LINE
  5
A8B6
330
1F
100
AcDbEntity
  8
0
 62
     0
 48
0.5
100
AcDbLine
 10
57.95653997491536
 20
1200.5371013336
 30
0.0
 11
57.95653997491536
 21
1204.76389138431
 31
0.0
  0
LINE
  5
A8B8
330
1F
100
AcDbEntity
  8
0
 62
     0
 48
0.5
100
AcDbLine
 10
37.95653997491524
 20
1254.069882093297
 30
0.0
 11
37.95653997491524
 21
1262.069882093297
 31
0.0
  0
LINE
  5
A8B9
330
1F
100
AcDbEntity
  8
0
 62
     0
 48
0.5
100
AcDbLine
 10
37.95653997491524
 20
1262.069882093297
 30
0.0
 11
213.9231228043509
 21
1262.069882093297
 31
0.0
  0
LINE
  5
A8BA
330
1F
100
AcDbEntity
  8
0
 62
     0
 48
0.5
100
AcDbLine
 10
501.6708600231778
 20
1254.069882093297
 30
0.0
 11
501.6708600231778
 21
1262.069882093297
 31
0.0
  0
LINE
  5
A8BD
330
1F
100
AcDbEntity
  8
0
 62
     0
 48
0.5
100
AcDbLine
 10
45.95653997491536
 20
1254.069882093297
 30
0.0
 11
213.9231228043509
 21
1254.069882093297
 31
0.0
  0
LINE
  5
A8C0
330
1F
100
AcDbEntity
  8
0
 62
     0
 48
0.5
100
AcDbLine
 10
45.95653997491536
 20
1254.069882093297
 30
0.0
 11
37.95653997491524
 21
1254.069882093297
 31
0.0
  0
LINE
  5
A8C1
330
1F
100
AcDbEntity
  8
0
 62
     0
 48
0.5
100
AcDbLine
 10
37.95653997491524
 20
1254.069882093297
 30
0.0
 11
213.9231228043509
 21
1254.069882093297
 31
0.0
  0
LINE
  5
A8C2
330
1F
100
AcDbEntity
  8
0
 62
     0
 48
0.5
100
AcDbLine
 10
179.5662816365838
 20
1207.500823802125
 30
0.0
 11
213.9231228043509
 21
1207.500823802125
 31
0.0
  0
LINE
  5
A8C3
330
1F
100
AcDbEntity
  8
0
 62
     0
 48
0.5
100
AcDbLine
 10
179.5662816365838
 20
1201.500823802125
 30
0.0
 11
213.9231228043509
 21
1201.500823802125
 31
0.0
  0
LINE
  5
A8C6
330
1F
100
AcDbEntity
  8
0
 62
     0
 48
0.5
100
AcDbLine
 10
221.2875865771329
 20
1207.500823802126
 30
0.0
 11
257.1697951756459
 21
1207.500823802126
 31
0.0
  0
LINE
  5
A8C7
330
1F
100
AcDbEntity
  8
0
 62
     0
 48
0.5
100
AcDbLine
 10
221.2875865771329
 20
1201.500823802126
 30
0.0
 11
257.1697951756459
 21
1201.500823802126
 31
0.0
  0
LINE
  5
A8CA
330
1F
100
AcDbEntity
  8
0
 62
     0
 48
0.5
100
AcDbLine
 10
221.2875865771329
 20
1262.069882093297
 30
0.0
 11
501.6708600231778
 21
1262.069882093297
 31
0.0
  0
LINE
  5
A8CB
330
1F
100
AcDbEntity
  8
0
 62
     0
 48
0.5
100
AcDbLine
 10
221.2875865771329
 20
1254.069882093297
 30
0.0
 11
501.6708600231778
 21
1254.069882093297
 31
0.0
  0
LINE
  5
A8CC
330
1F
100
AcDbEntity
  8
0
 62
     0
 48
0.5
100
AcDbLine
 10
221.2875865771329
 20
1254.069882093297
 30
0.0
 11
493.6708600231777
 21
1254.069882093297
 31
0.0
  0
MTEXT
  5
A8CD
330
1F
100
AcDbEntity
  8
0
 62
     0
 48
0.5
100
AcDbMText
 10
69.20855109392687
 20
1181.997873409276
 30
0.0
 40
6.0
 41
0.0
 71
     1
 72
     1
  1
端子金具（長さ調整可）
 73
     1
 44
1.0
  0
MTEXT
  5
A8CE
330
1F
100
AcDbEntity
  8
0
 62
     0
 48
0.5
100
AcDbMText
 10
384.6119277973948
 20
1181.997873409276
 30
0.0
 40
6.0
 41
0.0
 71
     1
 72
     1
  1
M10スレッド
 73
     1
 44
1.0
  0
MTEXT
  5
A8CF
330
1F
100
AcDbEntity
  8
0
 62
     0
 48
0.5
100
AcDbMText
 10
431.3655948188734
 20
1229.17932769797
 30
0.0
 40
6.0
 41
0.0
 71
     1
 72
     1
  1
スレッドスリーブ
 73
     1
 44
1.0
  0
MTEXT
  5
A8D0
330
1F
100
AcDbEntity
  8
0
 62
     0
 48
0.5
100
AcDbMText
 10
309.9866956821697
 20
1181.997873409276
 30
0.0
 40
6.0
 41
0.0
 71
     1
 72
     1
  1
防犯カバー
 73
     1
 44
1.0
  0
LINE
  5
A8D3
330
1F
100
AcDbEntity
  8
0
 62
     0
 48
0.5
100
AcDbLine
 10
516.3640063621478
 20
1214.500823802129
 30
0.0
 11
516.3640063621478
 21
1194.500823802129
 31
0.0
  0
LINE
  5
A8D4
330
1F
100
AcDbEntity
  8
0
 62
     0
 48
0.5
100
AcDbLine
 10
516.3640063621478
 20
1214.500823802129
 30
0.0
 11
523.3640063621478
 21
1214.500823802129
 31
0.0
  0
LINE
  5
A8D5
330
1F
100
AcDbEntity
  8
0
 62
     0
 48
0.5
100
AcDbLine
 10
525.3640063621478
 20
1212.500823802129
 30
0.0
 11
525.3640063621478
 21
1196.500823802128
 31
0.0
  0
LINE
  5
A8D6
330
1F
100
AcDbEntity
  8
0
 62
     0
 48
0.5
100
AcDbLine
 10
519.5152847940944
 20
1194.500823802129
 30
0.0
 11
523.3640063621478
 21
1194.500823802129
 31
0.0
  0
LINE
  5
A8D7
330
1F
100
AcDbEntity
  8
0
 62
     0
 48
0.5
100
AcDbLine
 10
516.3640063621478
 20
1194.500823802129
 30
0.0
 11
519.5152847940944
 21
1194.500823802129
 31
0.0
  0
ARC
  5
A8D8
330
1F
100
AcDbEntity
  8
0
 62
     0
 48
0.5
100
AcDbCircle
 10
523.3640063621478
 20
1212.500823802129
 30
0.0
 40
2.0
100
AcDbArc
 50
0.0
 51
90.0
  0
ARC
  5
A8D9
330
1F
100
AcDbEntity
  8
0
 62
     0
 48
0.5
100
AcDbCircle
 10
523.3640063621478
 20
1196.500823802128
 30
0.0
 40
2.0
100
AcDbArc
 50
270.0
 51
0.0
  0
LEADER
  5
A8DA
330
1F
100
AcDbEntity
  8
0
 62
     0
 48
0.5
100
AcDbLeader
  3
ISO-25
 73
     0
 40
6.0
 41
51.99999999999999
 76
     3
 10
33.48783449067536
 20
1214.500823802125
 30
0.0
 10
14.50096111189123
 20
1240.123378048059
 30
0.0
 10
12.29927754740856
 20
1240.123378048059
 30
0.0
340
A8DB
213
0.0
223
3.0
233
0.0
1001
ACAD
1000
DSTYLE
1002
{
1070
   147
1040
3.0
1070
    77
1070
     0
1002
}
  0
MTEXT
  5
A8DB
102
{ACAD_REACTORS
330
A8DA
102
}
330
1F
100
AcDbEntity
  8
0
 62
     0
 48
0.5
100
AcDbMText
 10
9.299277547408564
 20
1237.123378048059
 30
0.0
 40
6.0
 41
0.0
 71
     9
 72
     1
  1
M10六角ボルト
 73
     1
 44
1.0
  0
LEADER
  5
A8DC
330
1F
100
AcDbEntity
  8
0
 62
     0
 48
0.5
100
AcDbLeader
  3
ISO-25
 73
     0
 40
6.000000000000001
 41
63.82857142857142
 76
     3
 10
519.8640063621478
 20
1214.500823802129
 30
0.0
 10
537.6243334658011
 20
1238.774891226322
 30
0.0
 10
540.2427915865582
 20
1238.774891226322
 30
0.0
340
A8DD
213
0.0
223
-3.0
233
0.0
1001
ACAD
1000
DSTYLE
1002
{
1070
   147
1040
3.0
1070
    77
1070
     0
1002
}
  0
MTEXT
  5
A8DD
102
{ACAD_REACTORS
330
A8DC
102
}
330
1F
100
AcDbEntity
  8
0
 62
     0
 48
0.5
100
AcDbMText
 10
543.2427915865583
 20
1241.774891226322
 30
0.0
 40
6.0
 41
0.0
 71
     1
 72
     1
  1
ボルト頭用キャップ
 73
     1
 44
1.0
  0
VIEWPORT
  5
2F
330
1B
100
AcDbEntity
 67
     1
  8
0
100
AcDbViewport
 10
210.8645862540714
 20
149.7815185269692
 30
0.0
 40
479.1862016322689
 41
324.9607266531437
 68
     1
 69
     1
 12
210.8645862540714
 22
149.7815185269692
 13
0.0
 23
0.0
 14
10.0
 24
10.0
 15
10.0
 25
10.0
 16
0.0
 26
0.0
 36
1.0
 17
0.0
 27
0.0
 37
0.0
 42
50.0
 43
0.0
 44
0.0
 45
324.9607266531437
 50
0.0
 51
0.0
 72
   100
 90
    32800
  1

281
     0
 71
     1
 74
     0
110
0.0
120
0.0
130
0.0
111
1.0
121
0.0
131
0.0
112
0.0
122
1.0
132
0.0
 79
     0
146
0.0
  0
LWPOLYLINE
  5
AA
330
1B
100
AcDbEntity
 67
     1
  8
２
 62
     0
100
AcDbPolyline
 90
        4
 70
     1
 43
0.0
 10
1.042221639059562
 20
284.1844718556203
 10
407.757958684845
 20
284.1844718556203
 10
407.757958684845
 20
1.08829855961801
 10
1.042221639059562
 20
1.08829855961801
  0
MTEXT
  5
DC
330
1B
100
AcDbEntity
 67
     1
  8
２
 62
     0
100
AcDbMText
 10
275.257958684845
 20
4.588298559618024
 30
0.0
 40
3.0
 41
55.0
 71
     5
 72
     5
  1
{\fMS UI Gothic|b0|i0|c128|p50;株式会社 アルティマ}
 73
     1
 44
1.0
  0
LINE
  5
DD
330
1B
100
AcDbEntity
 67
     1
  8
２
 62
     0
100
AcDbLine
 10
262.757958684845
 20
8.088298559618039
 30
0.0
 11
302.757958684845
 21
8.088298559618039
 31
0.0
  0
LINE
  5
DE
330
1B
100
AcDbEntity
 67
     1
  8
２
 62
     0
100
AcDbLine
 10
342.7579586848451
 20
23.08829855961798
 30
0.0
 11
247.757958684845
 21
23.08829855961792
 31
0.0
  0
LINE
  5
DF
330
1B
100
AcDbEntity
 67
     1
  8
２
 62
     0
100
AcDbLine
 10
247.7579586848449
 20
18.08829855961798
 30
0.0
 11
342.7579586848451
 21
18.08829855961798
 31
0.0
  0
LINE
  5
E0
330
1B
100
AcDbEntity
 67
     1
  8
２
 62
     0
100
AcDbLine
 10
342.7579586848451
 20
13.08829855961801
 30
0.0
 11
247.7579586848451
 21
13.08829855961798
 31
0.0
  0
LINE
  5
E1
330
1B
100
AcDbEntity
 67
     1
  8
２
 62
     0
100
AcDbLine
 10
352.757958684845
 20
8.08829855961801
 30
0.0
 11
252.8023834435082
 21
8.088298559618039
 31
0.0
  0
LINE
  5
E2
330
1B
100
AcDbEntity
 67
     1
  8
２
 62
     0
100
AcDbLine
 10
407.7579586848449
 20
28.08829855961801
 30
0.0
 11
247.7579586848449
 21
28.08829855961803
 31
0.0
  0
MTEXT
  5
E3
330
1B
100
AcDbEntity
 67
     1
  8
２
 62
     0
100
AcDbMText
 10
255.2579586848449
 20
25.58829855961798
 30
0.0
 40
2.0
 41
15.0
 71
     5
 72
     5
  1
{\fMS UI Gothic|b0|i0|c128|p50;パーツ}
 73
     1
 44
1.0
  0
LINE
  5
E4
330
1B
100
AcDbEntity
 67
     1
  8
２
 62
     0
100
AcDbLine
 10
247.7579586848449
 20
8.088298559618039
 30
0.0
 11
262.757958684845
 21
8.088298559618039
 31
0.0
  0
LINE
  5
E5
330
1B
100
AcDbEntity
 67
     1
  8
２
 62
     0
100
AcDbLine
 10
247.7579586848451
 20
13.08829855961798
 30
0.0
 11
247.7579586848449
 21
18.08829855961798
 31
0.0
  0
LINE
  5
E6
330
1B
100
AcDbEntity
 67
     1
  8
２
 62
     0
100
AcDbLine
 10
247.7579586848449
 20
28.08829855961803
 30
0.0
 11
247.7579586848449
 21
9.237389132921862
 31
0.0
  0
LINE
  5
E7
330
1B
100
AcDbEntity
 67
     1
  8
２
 62
     0
100
AcDbLine
 10
247.7579586848449
 20
9.237389132921862
 30
0.0
 11
247.7579586848449
 21
1.088298559618039
 31
0.0
  0
LINE
  5
E8
330
1B
100
AcDbEntity
 67
     1
  8
２
 62
     0
100
AcDbLine
 10
262.757958684845
 20
8.088298559618039
 30
0.0
 11
262.757958684845
 21
28.08829855961803
 31
0.0
  0
LINE
  5
EC
330
1B
100
AcDbEntity
 67
     1
  8
２
 62
     0
100
AcDbLine
 10
407.757958684845
 20
8.08829855961801
 30
0.0
 11
352.757958684845
 21
8.08829855961801
 31
0.0
  0
MTEXT
  5
ED
330
1B
100
AcDbEntity
 67
     1
  8
２
 62
     0
 48
0.3
100
AcDbMText
 10
317.7579586848451
 20
4.370495529314986
 30
0.0
 40
2.0
 41
20.0
 71
     5
 72
     5
  1
E.Nomura
 73
     1
 44
1.0
  0
MTEXT
  5
EE
330
1B
100
AcDbEntity
 67
     1
  8
２
 62
     0
100
AcDbMText
 10
322.7579586848449
 20
25.588298559618
 30
0.0
 40
2.0
 41
40.0
 71
     5
 72
     5
  1
{\fMS UI Gothic|b0|i0|c128|p50;処　　　理}
 73
     1
 44
1.0
  0
LINE
  5
EF
330
1B
100
AcDbEntity
 67
     1
  8
２
 62
     0
100
AcDbLine
 10
327.757958684845
 20
1.08829855961801
 30
0.0
 11
307.7579586848451
 21
1.08829855961801
 31
0.0
  0
MTEXT
  5
F0
330
1B
100
AcDbEntity
 67
     1
  8
２
 62
     0
100
AcDbMText
 10
282.7579586848449
 20
25.58829855961799
 30
0.0
 40
2.0
 41
40.0
 71
     5
 72
     5
  1
{\fMS UI Gothic|b0|i0|c128|p50;材　　　質}
 73
     1
 44
1.0
  0
LINE
  5
F1
330
1B
100
AcDbEntity
 67
     1
  8
２
 62
     0
100
AcDbLine
 10
302.757958684845
 20
8.088298559618039
 30
0.0
 11
302.757958684845
 21
28.08829855961803
 31
0.0
  0
MTEXT
  5
F2
330
1B
100
AcDbEntity
 67
     1
  8
２
 62
     0
100
AcDbMText
 10
305.2690710641766
 20
4.588298559618021
 30
0.0
 40
2.0
 41
4.9778
 71
     5
 72
     5
  1
{\fMS UI Gothic|b0|i0|c128|p50;製\P図}
 73
     1
 44
1.0
  0
LINE
  5
F3
330
1B
100
AcDbEntity
 67
     1
  8
２
 62
     0
100
AcDbLine
 10
302.757958684845
 20
8.088298559618039
 30
0.0
 11
302.757958684845
 21
1.08829855961801
 31
0.0
  0
LINE
  5
F4
330
1B
100
AcDbEntity
 67
     1
  8
２
 62
     0
100
AcDbLine
 10
307.7579586848451
 20
1.08829855961801
 30
0.0
 11
307.7579586848451
 21
8.08829855961801
 31
0.0
  0
LINE
  5
F5
330
1B
100
AcDbEntity
 67
     1
  8
２
 62
     0
100
AcDbLine
 10
307.7579586848451
 20
8.08829855961801
 30
0.0
 11
302.757958684845
 21
8.088298559618039
 31
0.0
  0
MTEXT
  5
F6
330
1B
100
AcDbEntity
 67
     1
  8
２
 62
     0
100
AcDbMText
 10
347.7579586848451
 20
18.08829855961802
 30
0.0
 40
2.5
 41
10.0
 71
     5
 72
     5
  1
{\fMS UI Gothic|b0|i0|c128|p50;品\P\P名}
 73
     1
 44
1.0
  0
MTEXT
  5
F7
330
1B
100
AcDbEntity
 67
     1
  8
２
 62
     0
100
AcDbMText
 10
347.7579586848451
 20
4.588298559618021
 30
0.0
 40
2.0
 41
10.0
 71
     5
 72
     5
  1
{\fMS UI Gothic|b0|i0|c128|p50;品番}
 73
     1
 44
1.0
  0
LINE
  5
F8
330
1B
100
AcDbEntity
 67
     1
  8
２
 62
     0
100
AcDbLine
 10
342.7579586848451
 20
28.08829855961801
 30
0.0
 11
352.757958684845
 21
28.08829855961801
 31
0.0
  0
LINE
  5
F9
330
1B
100
AcDbEntity
 67
     1
  8
２
 62
     0
100
AcDbLine
 10
352.757958684845
 20
1.08829855961801
 30
0.0
 11
342.7579586848451
 21
1.08829855961801
 31
0.0
  0
LINE
  5
FA
330
1B
100
AcDbEntity
 67
     1
  8
２
 62
     0
100
AcDbLine
 10
342.7579586848451
 20
1.08829855961801
 30
0.0
 11
342.7579586848451
 21
28.08829855961801
 31
0.0
  0
LINE
  5
FB
330
1B
100
AcDbEntity
 67
     1
  8
２
 62
     0
100
AcDbLine
 10
342.7579586848451
 20
1.08829855961801
 30
0.0
 11
332.7579586848451
 21
1.08829855961801
 31
0.0
  0
MTEXT
  5
FC
330
1B
100
AcDbEntity
 67
     1
  8
２
 62
     0
100
AcDbMText
 10
330.2579586848451
 20
4.588298559618017
 30
0.0
 40
2.0
 41
5.0
 71
     5
 72
     5
  1
{\fMS UI Gothic|b0|i0|c128|p50;縮\P尺}
 73
     1
 44
1.0
  0
LINE
  5
FD
330
1B
100
AcDbEntity
 67
     1
  8
２
 62
     0
100
AcDbLine
 10
327.757958684845
 20
8.08829855961801
 30
0.0
 11
327.757958684845
 21
1.08829855961801
 31
0.0
  0
LINE
  5
FE
330
1B
100
AcDbEntity
 67
     1
  8
２
 62
     0
100
AcDbLine
 10
332.7579586848451
 20
1.08829855961801
 30
0.0
 11
332.7579586848451
 21
8.08829855961801
 31
0.0
  0
LINE
  5
FF
330
1B
100
AcDbEntity
 67
     1
  8
２
 62
     0
100
AcDbLine
 10
332.7579586848451
 20
8.08829855961801
 30
0.0
 11
327.757958684845
 21
8.08829855961801
 31
0.0
  0
LINE
  5
100
330
1B
100
AcDbEntity
 67
     1
  8
２
 62
     0
100
AcDbLine
 10
342.7579586848451
 20
8.08829855961801
 30
0.0
 11
342.7579586848451
 21
13.08829855961801
 31
0.0
  0
LINE
  5
101
330
1B
100
AcDbEntity
 67
     1
  8
２
 62
     0
100
AcDbLine
 10
342.7579586848451
 20
18.08829855961798
 30
0.0
 11
342.7579586848451
 21
23.08829855961798
 31
0.0
  0
LINE
  5
102
330
1B
100
AcDbEntity
 67
     1
  8
２
 62
     0
100
AcDbLine
 10
352.757958684845
 20
28.08829855961801
 30
0.0
 11
352.757958684845
 21
8.08829855961801
 31
0.0
  0
LINE
  5
103
330
1B
100
AcDbEntity
 67
     1
  8
２
 62
     0
100
AcDbLine
 10
352.757958684845
 20
8.08829855961801
 30
0.0
 11
352.757958684845
 21
1.08829855961801
 31
0.0
  0
LINE
  5
104
330
1B
100
AcDbEntity
 67
     1
  8
２
 62
     0
100
AcDbLine
 10
407.757958684845
 20
1.08829855961801
 30
0.0
 11
407.7579586848449
 21
28.08829855961801
 31
0.0
  0
LINE
  5
105
330
1B
100
AcDbEntity
 67
     1
  8
２
 62
     0
100
AcDbLine
 10
407.757958684845
 20
1.08829855961801
 30
0.0
 11
407.757958684845
 21
8.08829855961801
 31
0.0
  0
LINE
  5
10E
330
1B
100
AcDbEntity
 67
     1
  8
２
 62
     0
 48
0.3
100
AcDbLine
 10
348.1319795129643
 20
277.1869416790318
 30
0.0
 11
407.82803226079
 21
277.1869416790318
 31
0.0
  0
LINE
  5
10F
330
1B
100
AcDbEntity
 67
     1
  8
２
 62
     0
 48
0.3
100
AcDbLine
 10
348.1319795129643
 20
277.1869416790318
 30
0.0
 11
348.1319795129643
 21
284.1844718556203
 31
0.0
  0
LINE
  5
111
330
1B
100
AcDbEntity
 67
     1
  8
２
 62
     0
 48
0.3
100
AcDbLine
 10
358.9855818391189
 20
284.1844718556203
 30
0.0
 11
358.9855818391189
 21
277.1869416790318
 31
0.0
  0
MTEXT
  5
112
330
1B
100
AcDbEntity
 67
     1
  8
２
 62
     0
100
AcDbMText
 10
255.2579586848451
 20
10.58829855961801
 30
0.0
 40
2.5
 41
15.0
 71
     5
 72
     5
  1
{\fMS UI Gothic|b0|i0|c128|p17;１}
 73
     1
 44
1.0
  0
MTEXT
  5
113
330
1B
100
AcDbEntity
 67
     1
  8
２
 62
     0
100
AcDbMText
 10
255.2579586848449
 20
15.58829855961798
 30
0.0
 40
2.5
 41
15.0
 71
     5
 72
     5
  1
{\fMS UI Gothic|b0|i0|c128|p17;２}
 73
     1
 44
1.0
  0
MTEXT
  5
114
330
1B
100
AcDbEntity
 67
     1
  8
２
 62
     0
100
AcDbMText
 10
255.257958684845
 20
20.58829855961795
 30
0.0
 40
2.5
 41
15.0
 71
     5
 72
     5
  1
{\fMS UI Gothic|b0|i0|c128|p17;３}
 73
     1
 44
1.0
  0
MTEXT
  5
115
330
1B
100
AcDbEntity
 67
     1
  8
２
 62
     0
100
AcDbMText
 10
353.5587795129643
 20
280.6857067673261
 30
0.0
 40
2.5
 41
10.8536
 71
     5
 72
     5
  1
{\fMS UI Gothic|b0|i0|c128|p17;日付}
 73
     1
 44
1.0
  0
MTEXT
  5
1DD
330
1B
100
AcDbEntity
 67
     1
  8
１
100
AcDbMText
 10
187.6389970102438
 20
148.8327383458293
 30
0.0
 40
2.5
 41
0.0
 71
     9
 72
     1
  1

  7
ｽﾀｲﾙ1
 73
     1
 44
1.0
  0
MTEXT
  5
1DF
330
1B
100
AcDbEntity
 67
     1
  8
１
100
AcDbMText
 10
125.9251163363451
 20
100.1557259194321
 30
0.0
 40
2.5
 41
0.0
 71
     9
 72
     1
  1

  7
ｽﾀｲﾙ1
 73
     1
 44
1.0
  0
MTEXT
  5
1F5
330
1B
100
AcDbEntity
 67
     1
  8
１
100
AcDbMText
 10
95.93852678293661
 20
241.1781167614512
 30
0.0
 40
2.5
 41
0.0
 71
     1
 72
     1
  1

  7
ｽﾀｲﾙ1
 73
     1
 44
1.0
  0
MTEXT
  5
1F7
330
1B
100
AcDbEntity
 67
     1
  8
１
100
AcDbMText
 10
103.8845037960281
 20
221.796204377297
 30
0.0
 40
2.5
 41
0.0
 71
     1
 72
     1
  1

  7
ｽﾀｲﾙ1
 73
     1
 44
1.0
  0
ENDSEC
  0
SECTION
  2
OBJECTS
  0
DICTIONARY
  5
C
330
0
100
AcDbDictionary
281
     1
  3
ACAD_GROUP
350
D
  3
ACAD_IMAGE_VARS
350
2B
  3
ACAD_LAYOUT
350
1A
  3
ACAD_MLINESTYLE
350
17
  3
ACAD_PLOTSETTINGS
350
19
  3
ACAD_PLOTSTYLENAME
350
E
  3
AcadDim
350
9468
  3
AcDbVariableDictionary
350
65AD
  3
DWGPROPS
350
7E1
  0
DICTIONARY
  5
D
102
{ACAD_REACTORS
330
C
102
}
330
C
100
AcDbDictionary
281
     1
  0
RASTERVARIABLES
  5
2B
102
{ACAD_REACTORS
330
C
102
}
330
C
100
AcDbRasterVariables
 90
        0
 70
     1
 71
     1
 72
     1
  0
DICTIONARY
  5
1A
102
{ACAD_REACTORS
330
C
102
}
330
C
100
AcDbDictionary
281
     1
  3
Model
350
22
  3
ﾚｲｱｳﾄ1
350
1E
  3
ﾚｲｱｳﾄ2
350
26
  0
DICTIONARY
  5
17
102
{ACAD_REACTORS
330
C
102
}
330
C
100
AcDbDictionary
281
     1
  3
Standard
350
18
  0
DICTIONARY
  5
19
102
{ACAD_REACTORS
330
C
102
}
330
C
100
AcDbDictionary
281
     1
  0
ACDBDICTIONARYWDFLT
  5
E
102
{ACAD_REACTORS
330
C
102
}
330
C
100
AcDbDictionary
281
     1
  3
Normal
350
F
100
AcDbDictionaryWithDefault
340
F
  0
XRECORD
  5
9468
102
{ACAD_REACTORS
330
C
102
}
330
C
100
AcDbXrecord
280
     1
 90
   990106
  3

 60
     0
 61
     0
 62
     1
 63
     3
 64
     0
 65
     0
 66
     0
 67
     3
 68
     1
 69
     0
 70
     0
 71
     0
 72
     0
 40
20.43801309868158
170
     0
340
A8DD
  0
DICTIONARY
  5
65AD
102
{ACAD_REACTORS
330
C
102
}
330
C
100
AcDbDictionary
281
     1
  3
SORTENTS
350
65AE
  0
XRECORD
  5
7E1
102
{ACAD_REACTORS
330
C
102
}
330
C
100
AcDbXrecord
280
     1
  1
DWGPROPS COOKIE
  2

  3

  4

  6

  7

  8

  9

300
=
301
=
302
=
303
=
304
=
305
=
306
=
307
=
308
=
309
=
 40
0.1525764814814815
 41
2454873.622250069
 42
2455268.41966037
  1

 90
        0
  0
LAYOUT
  5
22
102
{ACAD_REACTORS
330
1A
102
}
330
1A
100
AcDbPlotSettings
  1

  2
RICOH IPSiO G515
  4
A3
  6

 40
5.873749732971191
 41
5.873747825622558
 42
5.873748779296875
 43
5.873748779296875
 44
296.9259948730469
 45
419.9466552734374
 46
0.0
 47
0.0
 48
0.0
 49
0.0
140
0.0
141
0.0
142
1.0
143
1.959971811730723
 70
 11952
 72
     1
 73
     1
 74
     1
  7

 75
     0
147
0.5102114193759578
148
117.6657051803588
149
-817.5266692991444
100
AcDbLayout
  1
Model
 70
     1
 71
     0
 10
0.0
 20
0.0
 11
12.0
 21
9.0
 12
0.0
 22
0.0
 32
0.0
 14
0.0
 24
0.0
 34
0.0
 15
0.0
 25
0.0
 35
0.0
146
0.0
 13
0.0
 23
0.0
 33
0.0
 16
1.0
 26
0.0
 36
0.0
 17
0.0
 27
1.0
 37
0.0
 76
     0
330
1F
  0
LAYOUT
  5
1E
102
{ACAD_REACTORS
330
1A
102
}
330
1A
100
AcDbPlotSettings
  1

  2
RICOH imagio MP C3500 RPCS
  4
A3
  6

 40
5.873749732971191
 41
5.873747825622558
 42
5.873748779296875
 43
5.873748779296875
 44
296.9259948730469
 45
419.9466552734374
 46
0.0
 47
0.0
 48
0.0
 49
0.0
140
0.0
141
0.0
142
1.0
143
1.0
 70
   688
 72
     1
 73
     1
 74
     5
  7

 75
    16
147
1.0
148
0.0
149
0.0
100
AcDbLayout
  1
ﾚｲｱｳﾄ1
 70
     1
 71
     1
 10
-5.873748779296875
 20
-5.873749732971191
 11
414.0729064941406
 21
291.0522451400757
 12
0.0
 22
0.0
 32
0.0
 14
1.042221639059562
 24
1.08829855961801
 34
0.0
 15
407.82803226079
 25
284.1844718556203
 35
0.0
146
0.0
 13
0.0
 23
0.0
 33
0.0
 16
1.0
 26
0.0
 36
0.0
 17
0.0
 27
1.0
 37
0.0
 76
     0
330
1B
331
2F
  0
LAYOUT
  5
26
102
{ACAD_REACTORS
330
1A
102
}
330
1A
100
AcDbPlotSettings
  1

  2
RICOH imagio Neo C380 RPCS
  4

  6

 40
0.0
 41
0.0
 42
0.0
 43
0.0
 44
0.0
 45
0.0
 46
0.0
 47
0.0
 48
0.0
 49
0.0
140
0.0
141
0.0
142
1.0
143
1.0
 70
   688
 72
     0
 73
     1
 74
     5
  7

 75
    16
147
1.0
148
0.0
149
0.0
100
AcDbLayout
  1
ﾚｲｱｳﾄ2
 70
     1
 71
     2
 10
0.0
 20
0.0
 11
0.0
 21
0.0
 12
0.0
 22
0.0
 32
0.0
 14
0.0
 24
0.0
 34
0.0
 15
0.0
 25
0.0
 35
0.0
146
0.0
 13
0.0
 23
0.0
 33
0.0
 16
1.0
 26
0.0
 36
0.0
 17
0.0
 27
1.0
 37
0.0
 76
     0
330
23
331
922
  0
MLINESTYLE
  5
18
102
{ACAD_REACTORS
330
17
102
}
330
17
100
AcDbMlineStyle
  2
STANDARD
 70
     0
  3

 62
   256
 51
90.0
 52
90.0
 71
     2
 49
0.5
 62
   256
  6
BYLAYER
 49
-0.5
 62
   256
  6
BYLAYER
  0
ACDBPLACEHOLDER
  5
F
102
{ACAD_REACTORS
330
E
102
}
330
E
  0
DICTIONARYVAR
  5
65AE
102
{ACAD_REACTORS
330
65AD
102
}
330
65AD
100
DictionaryVariables
280
     0
  1
96
  0
ENDSEC
  0
EOF
