  0
SECTION
  2
HEADER
  9
$ACADVER
  1
AC1015
  9
$ACADMAINTVER
 70
     6
  9
$DWGCODEPAGE
  3
ANSI_932
  9
$INSBASE
 10
0.0
 20
0.0
 30
0.0
  9
$EXTMIN
 10
-117.6069841392893
 20
817.5308658634675
 30
0.0
  9
$EXTMAX
 10
682.3930158607106
 20
1367.530865863467
 30
0.0
  9
$LIMMIN
 10
0.0
 20
0.0
  9
$LIMMAX
 10
420.0
 20
297.0
  9
$ORTHOMODE
 70
     0
  9
$REGENMODE
 70
     1
  9
$FILLMODE
 70
     1
  9
$QTEXTMODE
 70
     0
  9
$MIRRTEXT
 70
     1
  9
$LTSCALE
 40
1.0
  9
$ATTMODE
 70
     1
  9
$TEXTSIZE
 40
2.5
  9
$TRACEWID
 40
1.0
  9
$TEXTSTYLE
  7
Standard
  9
$CLAYER
  8
0
  9
$CELTYPE
  6
ByLayer
  9
$CECOLOR
 62
     0
  9
$CELTSCALE
 40
0.5
  9
$DISPSILH
 70
     0
  9
$DIMSCALE
 40
1.0
  9
$DIMASZ
 40
5.0
  9
$DIMEXO
 40
2.0
  9
$DIMDLI
 40
3.75
  9
$DIMRND
 40
0.0
  9
$DIMDLE
 40
0.0
  9
$DIMEXE
 40
5.0
  9
$DIMTP
 40
0.0
  9
$DIMTM
 40
0.0
  9
$DIMTXT
 40
6.0
  9
$DIMCEN
 40
2.5
  9
$DIMTSZ
 40
0.0
  9
$DIMTOL
 70
     0
  9
$DIMLIM
 70
     0
  9
$DIMTIH
 70
     0
  9
$DIMTOH
 70
     0
  9
$DIMSE1
 70
     0
  9
$DIMSE2
 70
     0
  9
$DIMTAD
 70
     1
  9
$DIMZIN
 70
     8
  9
$DIMBLK
  1

  9
$DIMASO
 70
     1
  9
$DIMSHO
 70
     1
  9
$DIMPOST
  1

  9
$DIMAPOST
  1

  9
$DIMALT
 70
     0
  9
$DIMALTD
 70
     3
  9
$DIMALTF
 40
0.1
  9
$DIMLFAC
 40
1.0
  9
$DIMTOFL
 70
     1
  9
$DIMTVP
 40
0.0
  9
$DIMTIX
 70
     0
  9
$DIMSOXD
 70
     0
  9
$DIMSAH
 70
     0
  9
$DIMBLK1
  1

  9
$DIMBLK2
  1

  9
$DIMSTYLE
  2
ISO-25
  9
$DIMCLRD
 70
     7
  9
$DIMCLRE
 70
     7
  9
$DIMCLRT
 70
     0
  9
$DIMTFAC
 40
1.0
  9
$DIMGAP
 40
3.0
  9
$DIMJUST
 70
     0
  9
$DIMSD1
 70
     0
  9
$DIMSD2
 70
     0
  9
$DIMTOLJ
 70
     0
  9
$DIMTZIN
 70
     8
  9
$DIMALTZ
 70
     0
  9
$DIMALTTZ
 70
     0
  9
$DIMUPT
 70
     0
  9
$DIMDEC
 70
     2
  9
$DIMTDEC
 70
     2
  9
$DIMALTU
 70
     2
  9
$DIMALTTD
 70
     3
  9
$DIMTXSTY
  7
Standard
  9
$DIMAUNIT
 70
     0
  9
$DIMADEC
 70
     0
  9
$DIMALTRND
 40
0.0
  9
$DIMAZIN
 70
     0
  9
$DIMDSEP
 70
    46
  9
$DIMATFIT
 70
     3
  9
$DIMFRAC
 70
     0
  9
$DIMLDRBLK
  1

  9
$DIMLUNIT
 70
     2
  9
$DIMLWD
 70
     9
  9
$DIMLWE
 70
     9
  9
$DIMTMOVE
 70
     0
  9
$LUNITS
 70
     2
  9
$LUPREC
 70
     4
  9
$SKETCHINC
 40
1.0
  9
$FILLETRAD
 40
2.0
  9
$AUNITS
 70
     0
  9
$AUPREC
 70
     0
  9
$MENU
  1
.
  9
$ELEVATION
 40
0.0
  9
$PELEVATION
 40
0.0
  9
$THICKNESS
 40
0.0
  9
$LIMCHECK
 70
     0
  9
$CHAMFERA
 40
0.3
  9
$CHAMFERB
 40
0.3
  9
$CHAMFERC
 40
20.0
  9
$CHAMFERD
 40
0.0
  9
$SKPOLY
 70
     0
  9
$TDCREATE
 40
2454873.622250069
  9
$TDUCREATE
 40
2454873.247250069
  9
$TDUPDATE
 40
2459635.600699432
  9
$TDUUPDATE
 40
2459635.225699432
  9
$TDINDWG
 40
0.7952062616
  9
$TDUSRTIMER
 40
0.7952062616
  9
$USRTIMER
 70
     1
  9
$ANGBASE
 50
0.0
  9
$ANGDIR
 70
     0
  9
$PDMODE
 70
     0
  9
$PDSIZE
 40
0.0
  9
$PLINEWID
 40
0.0
  9
$SPLFRAME
 70
     0
  9
$SPLINETYPE
 70
     6
  9
$SPLINESEGS
 70
     8
  9
$HANDSEED
  5
AEA6
  9
$SURFTAB1
 70
     6
  9
$SURFTAB2
 70
     6
  9
$SURFTYPE
 70
     6
  9
$SURFU
 70
     6
  9
$SURFV
 70
     6
  9
$UCSBASE
  2

  9
$UCSNAME
  2

  9
$UCSORG
 10
0.0
 20
0.0
 30
0.0
  9
$UCSXDIR
 10
1.0
 20
0.0
 30
0.0
  9
$UCSYDIR
 10
0.0
 20
1.0
 30
0.0
  9
$UCSORTHOREF
  2

  9
$UCSORTHOVIEW
 70
     0
  9
$UCSORGTOP
 10
0.0
 20
0.0
 30
0.0
  9
$UCSORGBOTTOM
 10
0.0
 20
0.0
 30
0.0
  9
$UCSORGLEFT
 10
0.0
 20
0.0
 30
0.0
  9
$UCSORGRIGHT
 10
0.0
 20
0.0
 30
0.0
  9
$UCSORGFRONT
 10
0.0
 20
0.0
 30
0.0
  9
$UCSORGBACK
 10
0.0
 20
0.0
 30
0.0
  9
$PUCSBASE
  2

  9
$PUCSNAME
  2

  9
$PUCSORG
 10
0.0
 20
0.0
 30
0.0
  9
$PUCSXDIR
 10
1.0
 20
0.0
 30
0.0
  9
$PUCSYDIR
 10
0.0
 20
1.0
 30
0.0
  9
$PUCSORTHOREF
  2

  9
$PUCSORTHOVIEW
 70
     0
  9
$PUCSORGTOP
 10
0.0
 20
0.0
 30
0.0
  9
$PUCSORGBOTTOM
 10
0.0
 20
0.0
 30
0.0
  9
$PUCSORGLEFT
 10
0.0
 20
0.0
 30
0.0
  9
$PUCSORGRIGHT
 10
0.0
 20
0.0
 30
0.0
  9
$PUCSORGFRONT
 10
0.0
 20
0.0
 30
0.0
  9
$PUCSORGBACK
 10
0.0
 20
0.0
 30
0.0
  9
$USERI1
 70
     0
  9
$USERI2
 70
     0
  9
$USERI3
 70
     0
  9
$USERI4
 70
     0
  9
$USERI5
 70
     0
  9
$USERR1
 40
0.0
  9
$USERR2
 40
0.0
  9
$USERR3
 40
0.0
  9
$USERR4
 40
0.0
  9
$USERR5
 40
0.0
  9
$WORLDVIEW
 70
     1
  9
$SHADEDGE
 70
     3
  9
$SHADEDIF
 70
    70
  9
$TILEMODE
 70
     1
  9
$MAXACTVP
 70
    64
  9
$PINSBASE
 10
0.0
 20
0.0
 30
0.0
  9
$PLIMCHECK
 70
     0
  9
$PEXTMIN
 10
1.042221639059562
 20
1.08829855961801
 30
0.0
  9
$PEXTMAX
 10
407.82803226079
 20
284.1844718556203
 30
0.0
  9
$PLIMMIN
 10
-5.873748779296875
 20
-5.873749732971191
  9
$PLIMMAX
 10
414.0729064941406
 20
291.0522451400757
  9
$UNITMODE
 70
     0
  9
$VISRETAIN
 70
     1
  9
$PLINEGEN
 70
     0
  9
$PSLTSCALE
 70
     1
  9
$TREEDEPTH
 70
  3020
  9
$CMLSTYLE
  2
Standard
  9
$CMLJUST
 70
     0
  9
$CMLSCALE
 40
20.0
  9
$PROXYGRAPHICS
 70
     1
  9
$MEASUREMENT
 70
     1
  9
$CELWEIGHT
370
    -1
  9
$ENDCAPS
280
     0
  9
$JOINSTYLE
280
     0
  9
$LWDISPLAY
290
     0
  9
$INSUNITS
 70
     4
  9
$HYPERLINKBASE
  1

  9
$STYLESHEET
  1

  9
$XEDIT
290
     1
  9
$CEPSNTYPE
380
     0
  9
$PSTYLEMODE
290
     1
  9
$FINGERPRINTGUID
  2
{951E45A9-2098-449B-99F4-687C375CF490}
  9
$VERSIONGUID
  2
{C42C9505-3B67-464F-833F-A8D075560C1C}
  9
$EXTNAMES
290
     1
  9
$PSVPSCALE
 40
0.0
  9
$OLESTARTUP
290
     0
  0
ENDSEC
  0
SECTION
  2
CLASSES
  0
CLASS
  1
ACDBDICTIONARYWDFLT
  2
AcDbDictionaryWithDefault
  3
AutoCAD 2000
 90
        0
280
     0
281
     0
  0
CLASS
  1
ACDBPLACEHOLDER
  2
AcDbPlaceHolder
  3
AutoCAD 2000
 90
        0
280
     0
281
     0
  0
CLASS
  1
LAYOUT
  2
AcDbLayout
  3
AutoCAD 2000
 90
        0
280
     0
281
     0
  0
CLASS
  1
RASTERVARIABLES
  2
AcDbRasterVariables
  3
ISM
 90
        0
280
     0
281
     0
  0
CLASS
  1
DICTIONARYVAR
  2
AcDbDictionaryVar
  3
AutoCAD 2000
 90
        0
280
     0
281
     0
  0
ENDSEC
  0
SECTION
  2
TABLES
  0
TABLE
  2
VPORT
  5
8
330
0
100
AcDbSymbolTable
 70
     3
  0
VPORT
  5
AEA5
330
8
100
AcDbSymbolTableRecord
100
AcDbViewportTableRecord
  2
*Active
 70
     0
 10
0.0
 20
0.0
 11
1.0
 21
1.0
 12
356.4117575381183
 22
1031.637118281763
 13
0.0
 23
0.0
 14
10.0
 24
10.0
 15
10.0
 25
10.0
 16
0.0
 26
0.0
 36
1.0
 17
0.0
 27
0.0
 37
0.0
 40
814.0736101664352
 41
1.477300613496932
 42
50.0
 43
0.0
 44
0.0
 50
0.0
 51
0.0
 71
     0
 72
   100
 73
     1
 74
     3
 75
     0
 76
     0
 77
     0
 78
     0
281
     0
 65
     1
110
0.0
120
0.0
130
0.0
111
1.0
121
0.0
131
0.0
112
0.0
122
1.0
132
0.0
 79
     0
146
0.0
  0
ENDTAB
  0
TABLE
  2
LTYPE
  5
5
330
0
100
AcDbSymbolTable
 70
     5
  0
LTYPE
  5
14
330
5
100
AcDbSymbolTableRecord
100
AcDbLinetypeTableRecord
  2
ByBlock
 70
     0
  3

 72
    65
 73
     0
 40
0.0
  0
LTYPE
  5
15
330
5
100
AcDbSymbolTableRecord
100
AcDbLinetypeTableRecord
  2
ByLayer
 70
     0
  3

 72
    65
 73
     0
 40
0.0
  0
LTYPE
  5
16
330
5
100
AcDbSymbolTableRecord
100
AcDbLinetypeTableRecord
  2
Continuous
 70
     0
  3
Solid line
 72
    65
 73
     0
 40
0.0
  0
LTYPE
  5
35
330
5
100
AcDbSymbolTableRecord
100
AcDbLinetypeTableRecord
  2
HIDDEN
 70
     0
  3
Hidden __ __ __ __ __ __ __ __ __ __ __ __ __ _
 72
    65
 73
     2
 40
9.524999999999998
 49
6.349999999999999
 74
     0
 49
-3.174999999999999
 74
     0
  0
LTYPE
  5
36
330
5
100
AcDbSymbolTableRecord
100
AcDbLinetypeTableRecord
  2
HIDDEN2
 70
     0
  3
Hidden (.5x) _ _ _ _ _ _ _ _ _ _ _ _ _ _ _ _ _
 72
    65
 73
     2
 40
4.762499999999999
 49
3.174999999999999
 74
     0
 49
-1.587499999999999
 74
     0
  0
LTYPE
  5
37
330
5
100
AcDbSymbolTableRecord
100
AcDbLinetypeTableRecord
  2
CENTER
 70
     0
  3
Center ____ _ ____ _ ____ _ ____ _ ____ _ ____
 72
    65
 73
     4
 40
50.8
 49
31.75
 74
     0
 49
-6.349999999999999
 74
     0
 49
6.349999999999999
 74
     0
 49
-6.349999999999999
 74
     0
  0
LTYPE
  5
38
330
5
100
AcDbSymbolTableRecord
100
AcDbLinetypeTableRecord
  2
PHANTOM2
 70
     0
  3
Phantom (.5x) ___ _ _ ___ _ _ ___ _ _ ___ _ _
 72
    65
 73
     6
 40
31.75
 49
15.875
 74
     0
 49
-3.174999999999999
 74
     0
 49
3.174999999999999
 74
     0
 49
-3.174999999999999
 74
     0
 49
3.174999999999999
 74
     0
 49
-3.174999999999999
 74
     0
  0
ENDTAB
  0
TABLE
  2
LAYER
  5
2
330
0
100
AcDbSymbolTable
 70
    15
  0
LAYER
  5
10
330
2
100
AcDbSymbolTableRecord
100
AcDbLayerTableRecord
  2
0
 70
     0
 62
     7
  6
Continuous
370
     9
390
F
  0
LAYER
  5
39
330
2
100
AcDbSymbolTableRecord
100
AcDbLayerTableRecord
  2
１
 70
     0
 62
     2
  6
Continuous
370
     9
390
F
  0
LAYER
  5
3A
330
2
100
AcDbSymbolTableRecord
100
AcDbLayerTableRecord
  2
２
 70
     0
 62
     3
  6
Continuous
370
    20
390
F
  0
LAYER
  5
3B
330
2
100
AcDbSymbolTableRecord
100
AcDbLayerTableRecord
  2
３
 70
     0
 62
     4
  6
HIDDEN
370
    15
390
F
  0
LAYER
  5
3C
330
2
100
AcDbSymbolTableRecord
100
AcDbLayerTableRecord
  2
４
 70
     0
 62
     4
  6
HIDDEN2
370
    15
390
F
  0
LAYER
  5
3D
330
2
100
AcDbSymbolTableRecord
100
AcDbLayerTableRecord
  2
５
 70
     0
 62
     6
  6
CENTER
370
    15
390
F
  0
LAYER
  5
3E
330
2
100
AcDbSymbolTableRecord
100
AcDbLayerTableRecord
  2
６
 70
     0
 62
     5
  6
PHANTOM2
370
    15
390
F
  0
LAYER
  5
46
330
2
100
AcDbSymbolTableRecord
100
AcDbLayerTableRecord
  2
Defpoints
 70
     0
 62
     7
  6
Continuous
290
     0
370
    -3
390
F
  0
LAYER
  5
AB
330
2
100
AcDbSymbolTableRecord
100
AcDbLayerTableRecord
  2
Object
 70
     0
 62
     3
  6
Continuous
370
    20
390
F
  0
LAYER
  5
63B4
330
2
100
AcDbSymbolTableRecord
100
AcDbLayerTableRecord
  2
HIDDEN2
 70
     0
 62
     7
  6
HIDDEN2
370
    15
390
F
  0
LAYER
  5
64C8
330
2
100
AcDbSymbolTableRecord
100
AcDbLayerTableRecord
  2
1
 70
     0
 62
     7
  6
Continuous
370
     9
390
F
  0
LAYER
  5
64C9
330
2
100
AcDbSymbolTableRecord
100
AcDbLayerTableRecord
  2
2
 70
     0
 62
     3
  6
Continuous
370
    20
390
F
  0
LAYER
  5
88C5
330
2
100
AcDbSymbolTableRecord
100
AcDbLayerTableRecord
  2
Defined Points
 70
     0
 62
     2
  6
Continuous
370
    13
390
F
  0
LAYER
  5
9CA0
330
2
100
AcDbSymbolTableRecord
100
AcDbLayerTableRecord
  2
CENTER
 70
     0
 62
     7
  6
CENTER
370
     5
390
F
  0
LAYER
  5
9EEA
330
2
100
AcDbSymbolTableRecord
100
AcDbLayerTableRecord
  2
Hidden
 70
     0
 62
     4
  6
HIDDEN
370
    13
390
F
  0
ENDTAB
  0
TABLE
  2
STYLE
  5
3
330
0
100
AcDbSymbolTable
 70
     3
  0
STYLE
  5
11
330
3
100
AcDbSymbolTableRecord
100
AcDbTextStyleTableRecord
  2
Standard
 70
     0
 40
0.0
 41
1.0
 50
0.0
 71
     0
 42
2.5
  3
romans.shx
  4
bigfont.shx
  0
STYLE
  5
34
330
3
100
AcDbSymbolTableRecord
100
AcDbTextStyleTableRecord
  2

 70
     1
 40
0.0
 41
1.0
 50
0.0
 71
     0
 42
2.5
  3
ltypeshp.shx
  4

  0
STYLE
  5
12E
330
3
100
AcDbSymbolTableRecord
100
AcDbTextStyleTableRecord
  2
ｽﾀｲﾙ1
 70
     0
 40
2.5
 41
1.0
 50
0.0
 71
     0
 42
2.5
  3
txt.shx
  4

  0
ENDTAB
  0
TABLE
  2
VIEW
  5
6
330
0
100
AcDbSymbolTable
 70
     0
  0
ENDTAB
  0
TABLE
  2
UCS
  5
7
330
0
100
AcDbSymbolTable
 70
     0
  0
ENDTAB
  0
TABLE
  2
APPID
  5
9
330
0
100
AcDbSymbolTable
 70
     1
  0
APPID
  5
12
330
9
100
AcDbSymbolTableRecord
100
AcDbRegAppTableRecord
  2
ACAD
 70
     0
  0
ENDTAB
  0
TABLE
  2
DIMSTYLE
  5
A
330
0
100
AcDbSymbolTable
 70
     3
100
AcDbDimStyleTable
 71
     1
340
27
  0
DIMSTYLE
105
27
330
A
100
AcDbSymbolTableRecord
100
AcDbDimStyleTableRecord
  2
ISO-25
 70
     0
 41
5.0
 42
2.0
 43
3.75
 44
5.0
 73
     0
 74
     0
 77
     1
 78
     8
140
6.0
141
2.5
143
0.1
147
3.0
171
     3
172
     1
176
     7
177
     7
271
     2
272
     2
274
     3
283
     0
284
     8
340
11
371
     9
372
     9
  0
DIMSTYLE
105
AC
330
A
100
AcDbSymbolTableRecord
100
AcDbDimStyleTableRecord
  2
JIS
 70
     0
 41
2.5
 42
1.0
 43
7.0
 44
1.0
 73
     0
 74
     0
 77
     1
 78
     8
140
2.5
141
0.0
143
0.0394
147
0.0
172
     1
174
     1
175
     1
340
11
  0
DIMSTYLE
105
61DD
330
A
100
AcDbSymbolTableRecord
100
AcDbDimStyleTableRecord
  2
ｺﾋﾟｰ - ISO-25
 70
     0
 41
2.5
 42
0.625
 43
3.75
 44
1.25
 73
     0
 74
     0
 77
     1
 78
     8
140
2.5
141
2.5
143
0.03937007874016
147
0.625
171
     3
172
     1
271
     2
272
     2
274
     3
283
     0
284
     8
340
11
343
61D8
  0
ENDTAB
  0
TABLE
  2
BLOCK_RECORD
  5
1
330
0
100
AcDbSymbolTable
 70
     2
  0
BLOCK_RECORD
  5
1F
330
1
100
AcDbSymbolTableRecord
100
AcDbBlockTableRecord
  2
*Model_Space
340
22
  0
BLOCK_RECORD
  5
1B
330
1
100
AcDbSymbolTableRecord
100
AcDbBlockTableRecord
  2
*Paper_Space
340
1E
  0
BLOCK_RECORD
  5
23
330
1
100
AcDbSymbolTableRecord
100
AcDbBlockTableRecord
  2
*Paper_Space0
340
26
  0
BLOCK_RECORD
  5
61D8
330
1
100
AcDbSymbolTableRecord
100
AcDbBlockTableRecord
  2
_Dot
340
0
  0
ENDTAB
  0
ENDSEC
  0
SECTION
  2
BLOCKS
  0
BLOCK
  5
20
330
1F
100
AcDbEntity
  8
0
100
AcDbBlockBegin
  2
*Model_Space
 70
     0
 10
0.0
 20
0.0
 30
0.0
  3
*Model_Space
  1

  0
ENDBLK
  5
21
330
1F
100
AcDbEntity
  8
0
100
AcDbBlockEnd
  0
BLOCK
  5
1C
330
1B
100
AcDbEntity
 67
     1
  8
0
100
AcDbBlockBegin
  2
*Paper_Space
 70
     0
 10
0.0
 20
0.0
 30
0.0
  3
*Paper_Space
  1

  0
ENDBLK
  5
1D
330
1B
100
AcDbEntity
 67
     1
  8
0
100
AcDbBlockEnd
  0
BLOCK
  5
24
330
23
100
AcDbEntity
  8
0
100
AcDbBlockBegin
  2
*Paper_Space0
 70
     0
 10
0.0
 20
0.0
 30
0.0
  3
*Paper_Space0
  1

  0
VIEWPORT
  5
922
330
23
100
AcDbEntity
  8
0
100
AcDbViewport
 10
0.0
 20
0.0
 30
0.0
 40
0.0
 41
0.0
 69
     0
 12
0.0
 22
0.0
 13
0.0
 23
0.0
 14
10.0
 24
10.0
 15
10.0
 25
10.0
 16
0.0
 26
0.0
 36
1.0
 17
0.0
 27
0.0
 37
0.0
 42
50.0
 43
0.0
 44
0.0
 45
0.0
 50
0.0
 51
0.0
 72
   100
 90
    32800
  1

281
     0
 71
     1
 74
     0
110
0.0
120
0.0
130
0.0
111
1.0
121
0.0
131
0.0
112
0.0
122
1.0
132
0.0
 79
     0
146
0.0
  0
VIEWPORT
  5
924
330
23
100
AcDbEntity
  8
0
100
AcDbViewport
 10
0.0
 20
0.0
 30
0.0
 40
0.0
 41
0.0
 69
     0
 12
8199.401833840978
 22
6162.095030619208
 13
0.0
 23
0.0
 14
10.0
 24
10.0
 15
10.0
 25
10.0
 16
0.0
 26
0.0
 36
1.0
 17
0.0
 27
0.0
 37
0.0
 42
50.0
 43
0.0
 44
0.0
 45
12844.48115925182
 50
0.0
 51
0.0
 72
   100
 90
    32864
  1

281
     0
 71
     1
 74
     0
110
0.0
120
0.0
130
0.0
111
1.0
121
0.0
131
0.0
112
0.0
122
1.0
132
0.0
 79
     0
146
0.0
  0
ENDBLK
  5
25
330
23
100
AcDbEntity
  8
0
100
AcDbBlockEnd
  0
BLOCK
  5
61DB
330
61D8
100
AcDbEntity
  8
0
100
AcDbBlockBegin
  2
_Dot
 70
     0
 10
0.0
 20
0.0
 30
0.0
  3
_Dot
  1

  0
LWPOLYLINE
  5
61D9
330
61D8
100
AcDbEntity
  8
0
 62
     0
100
AcDbPolyline
 90
        2
 70
     1
 43
0.5
 10
-0.25
 20
0.0
 42
1.0
 10
0.25
 20
0.0
 42
1.0
  0
LINE
  5
61DA
330
61D8
100
AcDbEntity
  8
0
 62
     0
370
    -2
100
AcDbLine
 10
-0.5
 20
0.0
 30
0.0
 11
-1.0
 21
0.0
 31
0.0
  0
ENDBLK
  5
61DC
330
61D8
100
AcDbEntity
  8
0
100
AcDbBlockEnd
  0
ENDSEC
  0
SECTION
  2
ENTITIES
  0
LINE
  5
60DA
330
1F
100
AcDbEntity
  8
２
 62
     0
370
    20
100
AcDbLine
 10
-113.6069841392893
 20
817.5308658634676
 30
0.0
 11
682.3930158607106
 21
817.5308658634676
 31
0.0
  0
LINE
  5
60DB
330
1F
100
AcDbEntity
  8
２
 62
     0
 48
25.0
100
AcDbLine
 10
-113.6069841392893
 20
837.5308658634676
 30
0.0
 11
682.3930158607106
 21
837.5308658634676
 31
0.0
  0
LINE
  5
60DC
330
1F
100
AcDbEntity
  8
２
 62
     0
 48
25.0
100
AcDbLine
 10
-113.6069841392893
 20
837.5308658634676
 30
0.0
 11
682.3930158607106
 21
837.5308658634676
 31
0.0
  0
LINE
  5
60DD
330
1F
100
AcDbEntity
  8
0
 62
     0
 48
25.0
100
AcDbLine
 10
279.1215549150597
 20
837.5308658634676
 30
0.0
 11
318.4215549150597
 21
837.5308658634676
 31
0.0
  0
LINE
  5
60DE
330
1F
100
AcDbEntity
  8
２
 62
     0
370
    20
100
AcDbLine
 10
682.3930158607106
 20
817.5308658634676
 30
0.0
 11
-67.60698413928935
 21
817.5308658634678
 31
0.0
  0
LINE
  5
60DF
330
1F
100
AcDbEntity
  8
１
 62
     0
 48
25.0
100
AcDbLine
 10
-103.8208647361605
 20
827.5308658634676
 30
0.0
 11
173.6637676806376
 21
827.5308658634671
 31
0.0
  0
LINE
  5
60E0
330
1F
100
AcDbEntity
  8
１
 62
     0
 48
25.0
100
AcDbLine
 10
173.6637676806376
 20
822.5308658634673
 30
0.0
 11
-103.8208647361605
 21
822.5308658634672
 31
0.0
  0
LINE
  5
60E1
330
1F
100
AcDbEntity
  8
１
 62
     0
 48
25.0
100
AcDbLine
 10
173.6637676806376
 20
832.5308658634677
 30
0.0
 11
-103.8208647361605
 21
832.5308658634677
 31
0.0
  0
LINE
  5
60E2
330
1F
100
AcDbEntity
  8
0
 62
     0
100
AcDbLine
 10
-67.60698413928935
 20
817.5308658634676
 30
0.0
 11
-113.6069841392893
 21
817.5308658634676
 31
0.0
  0
LINE
  5
60E3
330
1F
100
AcDbEntity
  8
２
 62
     0
 48
25.0
100
AcDbLine
 10
-107.8208647361605
 20
837.5308658634676
 30
0.0
 11
-107.8208647361605
 21
817.5308658634676
 31
0.0
  0
LINE
  5
60E4
330
1F
100
AcDbEntity
  8
２
 62
     0
 48
25.0
100
AcDbLine
 10
-113.6069841392893
 20
817.5308658634676
 30
0.0
 11
-117.6069841392893
 21
817.5308658634676
 31
0.0
  0
LINE
  5
60E5
330
1F
100
AcDbEntity
  8
２
 62
     0
 48
25.0
100
AcDbLine
 10
-117.6069841392893
 20
817.6093089910487
 30
0.0
 11
-117.6069841392893
 21
817.5308658634676
 31
0.0
  0
LINE
  5
60E6
330
1F
100
AcDbEntity
  8
0
 62
     0
 48
25.0
100
AcDbLine
 10
-113.6069841392893
 20
837.5308658634676
 30
0.0
 11
-107.8208647361605
 21
837.5308658634676
 31
0.0
  0
MTEXT
  5
60E7
330
1F
100
AcDbEntity
  8
２
 62
     0
 48
25.0
100
AcDbMText
 10
-112.2139241392893
 20
827.5308658634678
 30
0.0
 40
4.5
 41
9.78612
 71
     5
 72
     5
  1
記\P事
 73
     1
 44
1.0
  0
LINE
  5
60E8
330
1F
100
AcDbEntity
  8
２
 62
     0
 48
25.0
100
AcDbLine
 10
-113.6069841392893
 20
837.5308658634676
 30
0.0
 11
-117.6069841392893
 21
837.5308658634676
 31
0.0
  0
LINE
  5
60E9
330
1F
100
AcDbEntity
  8
１
 62
     0
 48
25.0
100
AcDbLine
 10
-103.8208647361605
 20
822.5308658634672
 30
0.0
 11
-107.8208647361605
 21
822.5308658634672
 31
0.0
  0
LINE
  5
60EA
330
1F
100
AcDbEntity
  8
１
 62
     0
 48
25.0
100
AcDbLine
 10
-103.8208647361605
 20
827.5308658634676
 30
0.0
 11
-107.8208647361605
 21
827.5308658634676
 31
0.0
  0
LINE
  5
60EB
330
1F
100
AcDbEntity
  8
１
 62
     0
 48
25.0
100
AcDbLine
 10
-103.8208647361605
 20
832.5308658634677
 30
0.0
 11
-107.8208647361605
 21
832.5308658634677
 31
0.0
  0
LINE
  5
60EC
330
1F
100
AcDbEntity
  8
２
 62
     0
 48
25.0
100
AcDbLine
 10
173.6637676806376
 20
837.5308658634676
 30
0.0
 11
279.1215549150597
 21
837.5308658634676
 31
0.0
  0
LINE
  5
60ED
330
1F
100
AcDbEntity
  8
１
 62
     0
 48
25.0
100
AcDbLine
 10
173.6637676806376
 20
827.5308658634676
 30
0.0
 11
279.1215549150597
 21
827.5308658634676
 31
0.0
  0
MTEXT
  5
60EE
330
1F
100
AcDbEntity
  8
２
 62
     0
 48
25.0
100
AcDbMText
 10
193.3117526806377
 20
822.5308658634677
 30
0.0
 40
6.0
 41
39.296
 71
     5
 72
     5
  1
作図者
 73
     1
 44
1.0
  0
MTEXT
  5
60EF
330
1F
100
AcDbEntity
  8
２
 62
     0
 48
25.0
100
AcDbMText
 10
194.0347626806376
 20
832.5308658634677
 30
0.0
 40
6.0
 41
40.742
 71
     5
 72
     5
  1
作図日
 73
     1
 44
1.0
  0
LINE
  5
60F0
330
1F
100
AcDbEntity
  8
２
 62
     0
 48
25.0
100
AcDbLine
 10
173.6637676806376
 20
827.5308658634671
 30
0.0
 11
173.6637676806376
 21
817.5308658634676
 31
0.0
  0
LINE
  5
60F1
330
1F
100
AcDbEntity
  8
２
 62
     0
 48
25.0
100
AcDbLine
 10
173.6637676806376
 20
837.5308658634676
 30
0.0
 11
173.6637676806376
 21
817.5308658634676
 31
0.0
  0
LINE
  5
60F2
330
1F
100
AcDbEntity
  8
0
 62
     0
 48
25.0
100
AcDbLine
 10
173.6637676806376
 20
837.5308658634676
 30
0.0
 11
173.6637676806376
 21
827.5308658634676
 31
0.0
  0
LINE
  5
60F3
330
1F
100
AcDbEntity
  8
２
 62
     0
 48
25.0
100
AcDbLine
 10
212.9597354275438
 20
837.5308658634676
 30
0.0
 11
212.9597354275438
 21
817.5308658634676
 31
0.0
  0
LINE
  5
60F6
330
1F
100
AcDbEntity
  8
２
 62
     0
 48
25.0
100
AcDbLine
 10
279.1215549150597
 20
837.5308658634677
 30
0.0
 11
279.1215549150597
 21
817.5308658634678
 31
0.0
  0
LINE
  5
60F7
330
1F
100
AcDbEntity
  8
１
 62
     0
 48
25.0
100
AcDbLine
 10
318.4215549150597
 20
827.5308658634676
 30
0.0
 11
528.649591227999
 21
827.5308658634676
 31
0.0
  0
LINE
  5
60F8
330
1F
100
AcDbEntity
  8
0
 62
     0
 48
25.0
100
AcDbLine
 10
341.3965544355929
 20
837.5308658634676
 30
0.0
 11
460.2880544355928
 21
837.5308658634676
 31
0.0
  0
MTEXT
  5
60F9
330
1F
100
AcDbEntity
  8
２
 62
     0
 48
25.0
100
AcDbMText
 10
338.0715549150596
 20
822.5308658634677
 30
0.0
 40
6.0
 41
39.29999999999999
 71
     5
 72
     5
  1
図　　名
 73
     1
 44
1.0
  0
MTEXT
  5
60FA
330
1F
100
AcDbEntity
  8
２
 62
     0
 48
25.0
100
AcDbMText
 10
338.0715549150596
 20
832.5308658634677
 30
0.0
 40
6.0
 41
39.29999999999999
 71
     5
 72
     5
  1
物件名称
 73
     1
 44
1.0
  0
LINE
  5
60FB
330
1F
100
AcDbEntity
  8
0
 62
     0
 48
25.0
100
AcDbLine
 10
318.4215549150597
 20
837.5308658634676
 30
0.0
 11
357.7215549150596
 21
837.5308658634676
 31
0.0
  0
MTEXT
  5
60FC
330
1F
100
AcDbEntity
  8
２
 62
     0
 48
25.0
100
AcDbMText
 10
298.2565124150596
 20
827.5308658634678
 30
0.0
 40
4.5
 41
32.06989999999999
 71
     5
 72
     5
  1
Ｓ＝1/2
 73
     1
 44
1.0
  0
LINE
  5
60FD
330
1F
100
AcDbEntity
  8
２
 62
     0
 48
25.0
100
AcDbLine
 10
318.4215549150597
 20
837.5308658634676
 30
0.0
 11
318.4215549150597
 21
817.5308658634676
 31
0.0
  0
LINE
  5
60FE
330
1F
100
AcDbEntity
  8
0
 62
     0
 48
25.0
100
AcDbLine
 10
318.4215549150597
 20
837.5308658634676
 30
0.0
 11
318.4215549150597
 21
817.5308658634676
 31
0.0
  0
LINE
  5
60FF
330
1F
100
AcDbEntity
  8
２
 62
     0
 48
25.0
100
AcDbLine
 10
357.7215549150596
 20
837.5308658634676
 30
0.0
 11
357.7215549150596
 21
817.5308658634676
 31
0.0
  0
LINE
  5
6100
330
1F
100
AcDbEntity
  8
２
 62
     0
 48
25.0
100
AcDbLine
 10
528.649591227999
 20
837.5308658634676
 30
0.0
 11
528.649591227999
 21
817.5308658634676
 31
0.0
  0
MTEXT
  5
6101
330
1F
100
AcDbEntity
  8
２
 62
     0
 48
25.0
100
AcDbMText
 10
626.0641145896142
 20
827.5308658634678
 30
0.0
 40
6.0
 41
103.21335
 71
     5
 72
     5
  1
株式会社{\H1.25x; アルティマ}
 73
     1
 44
1.0
  0
ARC
  5
6102
330
1F
100
AcDbEntity
  8
Object
 62
     0
 48
0.3
100
AcDbCircle
 10
568.3681132541858
 20
824.3086653690383
 30
0.0
 40
4.049999999999999
100
AcDbArc
 50
180.0
 51
257.3448222610501
  0
LINE
  5
6103
102
{ACAD_REACTORS
330
6105
102
}
330
1F
100
AcDbEntity
  8
Object
 62
     0
 48
0.3
100
AcDbLine
 10
546.6185729416677
 20
834.8220867758399
 30
0.0
 11
549.3185729416677
 21
834.8220867758399
 31
0.0
  0
ARC
  5
6104
102
{ACAD_REACTORS
330
6105
102
}
330
1F
100
AcDbEntity
  8
Object
 62
     0
 48
0.3
100
AcDbCircle
 10
545.2685729416677
 20
824.29208677584
 30
0.0
 40
4.049999999999999
100
AcDbArc
 50
180.0
 51
0.0
  0
HATCH
  5
6105
330
1F
100
AcDbEntity
  8
Object
 62
     0
 48
0.3
100
AcDbHatch
 10
0.0
 20
0.0
 30
0.0
210
0.0
220
0.0
230
1.0
  2
ANSI31
 70
     0
 71
     1
 91
        1
 92
        1
 93
        8
 72
     1
 10
543.9185729416676
 20
834.8220867758399
 11
541.2185729416676
 21
834.8220867758399
 72
     1
 10
541.2185729416676
 20
834.8220867758399
 11
541.2185729416676
 21
824.29208677584
 72
     2
 10
545.2685729416677
 20
824.29208677584
 40
4.049999999999999
 50
180.0
 51
360.0
 73
     1
 72
     1
 10
549.3185729416677
 20
824.29208677584
 11
549.3185729416677
 21
834.8220867758399
 72
     1
 10
549.3185729416677
 20
834.8220867758399
 11
546.6185729416677
 21
834.8220867758399
 72
     1
 10
546.6185729416677
 20
834.8220867758399
 11
546.6185729416677
 21
824.29208677584
 72
     2
 10
545.2685729416677
 20
824.29208677584
 40
1.35
 50
360.0
 51
540.0
 73
     0
 72
     1
 10
543.9185729416676
 20
824.29208677584
 11
543.9185729416676
 21
834.8220867758399
 97
        8
330
610B
330
6106
330
6104
330
610D
330
6103
330
6108
330
6109
330
6107
 75
     0
 76
     1
 52
0.0
 41
0.01125
 77
     0
 78
     1
 53
45.0
 43
388.6807673218097
 44
717.6334720785245
 45
-0.025256970340507
 46
0.025256970340507
 79
     0
 98
        1
 10
388.6807673218097
 20
717.6334720785245
  0
LINE
  5
6106
102
{ACAD_REACTORS
330
6105
102
}
330
1F
100
AcDbEntity
  8
Object
 62
     0
 48
0.3
100
AcDbLine
 10
541.2185729416676
 20
824.29208677584
 30
0.0
 11
541.2185729416676
 21
834.8220867758399
 31
0.0
  0
LINE
  5
6107
102
{ACAD_REACTORS
330
6105
102
}
330
1F
100
AcDbEntity
  8
Object
 62
     0
 48
0.3
100
AcDbLine
 10
543.9185729416676
 20
834.8220867758399
 30
0.0
 11
543.9185729416676
 21
824.29208677584
 31
0.0
  0
LINE
  5
6108
102
{ACAD_REACTORS
330
6105
102
}
330
1F
100
AcDbEntity
  8
Object
 62
     0
 48
0.3
100
AcDbLine
 10
546.6185729416677
 20
834.8220867758399
 30
0.0
 11
546.6185729416677
 21
824.29208677584
 31
0.0
  0
ARC
  5
6109
102
{ACAD_REACTORS
330
6105
102
}
330
1F
100
AcDbEntity
  8
Object
 62
     0
 48
0.3
100
AcDbCircle
 10
545.2685729416677
 20
824.29208677584
 30
0.0
 40
1.35
100
AcDbArc
 50
180.0
 51
0.0
  0
LINE
  5
610A
330
1F
100
AcDbEntity
  8
Object
 62
     0
 48
0.3
100
AcDbLine
 10
541.2185729416676
 20
834.8220867758399
 30
0.0
 11
543.9185729416676
 21
834.8220867758399
 31
0.0
  0
LINE
  5
610B
102
{ACAD_REACTORS
330
6105
102
}
330
1F
100
AcDbEntity
  8
Object
 62
     0
 48
0.3
100
AcDbLine
 10
543.9185729416676
 20
834.8220867758399
 30
0.0
 11
541.2185729416676
 21
834.8220867758399
 31
0.0
  0
LINE
  5
610C
102
{ACAD_REACTORS
330
610F
102
}
330
1F
100
AcDbEntity
  8
Object
 62
     0
 48
0.3
100
AcDbLine
 10
556.5185729416677
 20
834.8220867758399
 30
0.0
 11
556.5185729416677
 21
822.9420867758401
 31
0.0
  0
LINE
  5
610D
102
{ACAD_REACTORS
330
6105
102
}
330
1F
100
AcDbEntity
  8
Object
 62
     0
 48
0.3
100
AcDbLine
 10
549.3185729416677
 20
834.8220867758399
 30
0.0
 11
549.3185729416677
 21
824.29208677584
 31
0.0
  0
LINE
  5
610E
102
{ACAD_REACTORS
330
610F
102
}
330
1F
100
AcDbEntity
  8
Object
 62
     0
 48
0.3
100
AcDbLine
 10
553.8185729416677
 20
834.8220867758399
 30
0.0
 11
553.8185729416677
 21
820.24208677584
 31
0.0
  0
HATCH
  5
610F
330
1F
100
AcDbEntity
  8
Object
 62
     0
 48
0.3
100
AcDbHatch
 10
0.0
 20
0.0
 30
0.0
210
0.0
220
0.0
230
1.0
  2
ANSI31
 70
     0
 71
     1
 91
        1
 92
        1
 93
        6
 72
     1
 10
553.8185729416677
 20
834.8220867758399
 11
556.5185729416677
 21
834.8220867758399
 72
     1
 10
556.5185729416677
 20
834.8220867758399
 11
556.5185729416677
 21
822.9420867758401
 72
     1
 10
556.5185729416677
 20
822.9420867758401
 11
561.9185729416677
 21
822.9420867758401
 72
     1
 10
561.9185729416677
 20
822.9420867758401
 11
561.9185729416677
 21
820.24208677584
 72
     1
 10
561.9185729416677
 20
820.24208677584
 11
553.8185729416677
 21
820.24208677584
 72
     1
 10
553.8185729416677
 20
820.24208677584
 11
553.8185729416677
 21
834.8220867758399
 97
        6
330
6113
330
610C
330
6112
330
6111
330
6110
330
610E
 75
     0
 76
     1
 52
0.0
 41
0.01125
 77
     0
 78
     1
 53
45.0
 43
388.6807673218097
 44
717.6334720785245
 45
-0.025256970340507
 46
0.025256970340507
 79
     0
 98
        1
 10
388.6807673218097
 20
717.6334720785245
  0
LINE
  5
6110
102
{ACAD_REACTORS
330
610F
102
}
330
1F
100
AcDbEntity
  8
Object
 62
     0
 48
0.3
100
AcDbLine
 10
553.8185729416677
 20
820.24208677584
 30
0.0
 11
561.9185729416677
 21
820.24208677584
 31
0.0
  0
LINE
  5
6111
102
{ACAD_REACTORS
330
610F
102
}
330
1F
100
AcDbEntity
  8
Object
 62
     0
 48
0.3
100
AcDbLine
 10
561.9185729416677
 20
820.24208677584
 30
0.0
 11
561.9185729416677
 21
822.9420867758401
 31
0.0
  0
LINE
  5
6112
102
{ACAD_REACTORS
330
610F
102
}
330
1F
100
AcDbEntity
  8
Object
 62
     0
 48
0.3
100
AcDbLine
 10
561.9185729416677
 20
822.9420867758401
 30
0.0
 11
556.5185729416677
 21
822.9420867758401
 31
0.0
  0
LINE
  5
6113
102
{ACAD_REACTORS
330
610F
102
}
330
1F
100
AcDbEntity
  8
Object
 62
     0
 48
0.3
100
AcDbLine
 10
553.8185729416677
 20
834.8220867758399
 30
0.0
 11
556.5185729416677
 21
834.8220867758399
 31
0.0
  0
LINE
  5
6114
330
1F
100
AcDbEntity
  8
Object
 62
     0
 48
0.3
100
AcDbLine
 10
572.4181132541859
 20
830.7720867758398
 30
0.0
 11
572.4181132541859
 21
829.2123630550754
 31
0.0
  0
LINE
  5
6115
330
1F
100
AcDbEntity
  8
Object
 62
     0
 48
0.3
100
AcDbLine
 10
567.0181132541858
 20
824.3086653690383
 30
0.0
 11
567.0181132541858
 21
830.7720867758398
 31
0.0
  0
LINE
  5
6116
330
1F
100
AcDbEntity
  8
Object
 62
     0
 48
0.3
100
AcDbLine
 10
564.3181132541858
 20
824.1537331999293
 30
0.0
 11
564.3181132541858
 21
830.7720867758398
 31
0.0
  0
LINE
  5
6117
330
1F
100
AcDbEntity
  8
Object
 62
     0
 48
0.3
100
AcDbLine
 10
569.7181132541859
 20
829.2123630550754
 30
0.0
 11
569.7181132541859
 21
830.7720867758398
 31
0.0
  0
LINE
  5
6118
330
1F
100
AcDbEntity
  8
Object
 62
     0
 48
0.3
100
AcDbLine
 10
567.0181132541858
 20
824.3086653690383
 30
0.0
 11
567.0181132541858
 21
830.7720867758398
 31
0.0
  0
HATCH
  5
6119
330
1F
100
AcDbEntity
  8
Object
 62
     0
 48
0.3
100
AcDbHatch
 10
0.0
 20
0.0
 30
0.0
210
0.0
220
0.0
230
1.0
  2
ANSI31
 70
     0
 71
     0
 91
        1
 92
        7
 72
     1
 73
     1
 93
       17
 10
567.0181132541858
 20
824.3086653690385
 42
0.0
 10
567.0181132541858
 20
830.77208677584
 42
-1.0
 10
569.7181132541859
 20
830.77208677584
 42
0.0
 10
569.7181132541859
 20
829.2123630550756
 42
0.0
 10
572.4181132541859
 20
829.2123630550756
 42
0.0
 10
572.4181132541859
 20
830.77208677584
 42
1.0
 10
564.3181132541858
 20
830.77208677584
 42
0.0
 10
564.3181132541858
 20
824.3086653690385
 42
0.3509045778193816
 10
567.4808271837385
 20
820.3570551365903
 42
0.4071999015487891
 10
569.7181132541859
 20
821.6727720151556
 42
0.0
 10
569.7181132541859
 20
820.24208677584
 42
0.0
 10
572.4181132541859
 20
820.24208677584
 42
0.0
 10
572.4181132541859
 20
827.58962883278
 42
0.0
 10
568.371917058751
 20
827.58962883278
 42
0.0
 10
568.3719170587507
 20
824.8896288327799
 42
0.0
 10
569.7181132541859
 20
824.8896288327799
 42
0.0
 10
569.7181132541859
 20
824.3086653690385
 42
-1.0
 97
        0
 75
     0
 76
     1
 52
0.0
 41
0.01125
 77
     0
 78
     1
 53
45.0
 43
388.6807673218097
 44
717.6334720785245
 45
-0.025256970340507
 46
0.025256970340507
 79
     0
 47
0.0407053698821989
 98
        1
 10
568.0942869891232
 20
822.1037355012922
  0
LINE
  5
611A
330
1F
100
AcDbEntity
  8
Object
 62
     0
 48
0.3
100
AcDbLine
 10
569.7181132541859
 20
829.2123630550754
 30
0.0
 11
572.4181132541859
 21
829.2123630550754
 31
0.0
  0
LINE
  5
611B
330
1F
100
AcDbEntity
  8
Object
 62
     0
 48
0.3
100
AcDbLine
 10
572.4181132541859
 20
827.5896288327798
 30
0.0
 11
568.371917058751
 21
827.5896288327798
 31
0.0
  0
LINE
  5
611C
330
1F
100
AcDbEntity
  8
Object
 62
     0
 48
0.3
100
AcDbLine
 10
569.7181132541859
 20
820.24208677584
 30
0.0
 11
572.4181132541859
 21
820.24208677584
 31
0.0
  0
LINE
  5
611D
330
1F
100
AcDbEntity
  8
Object
 62
     0
 48
0.3
100
AcDbLine
 10
572.4181132541859
 20
820.24208677584
 30
0.0
 11
569.7181132541859
 21
820.24208677584
 31
0.0
  0
LINE
  5
611E
330
1F
100
AcDbEntity
  8
Object
 62
     0
 48
0.3
100
AcDbLine
 10
568.371917058751
 20
827.5896288327798
 30
0.0
 11
568.371917058751
 21
824.8896288327799
 31
0.0
  0
LINE
  5
611F
330
1F
100
AcDbEntity
  8
Object
 62
     0
 48
0.3
100
AcDbLine
 10
568.371917058751
 20
824.8896288327799
 30
0.0
 11
569.7181132541859
 21
824.8896288327799
 31
0.0
  0
LINE
  5
6120
330
1F
100
AcDbEntity
  8
Object
 62
     0
 48
0.3
100
AcDbLine
 10
569.7181132541859
 20
824.3086653690383
 30
0.0
 11
569.7181132541859
 21
824.8896288327799
 31
0.0
  0
LINE
  5
6121
330
1F
100
AcDbEntity
  8
Object
 62
     0
 48
0.3
100
AcDbLine
 10
569.7181132541859
 20
824.8896288327799
 30
0.0
 11
569.7181132541859
 21
824.2651066341716
 31
0.0
  0
LINE
  5
6122
330
1F
100
AcDbEntity
  8
Object
 62
     0
 48
0.3
100
AcDbLine
 10
568.371917058751
 20
824.8896288327799
 30
0.0
 11
569.7181132541859
 21
824.8896288327799
 31
0.0
  0
LINE
  5
6123
330
1F
100
AcDbEntity
  8
Object
 62
     0
 48
0.3
100
AcDbLine
 10
569.7181132541859
 20
824.8896288327799
 30
0.0
 11
569.7181132541859
 21
824.3086653690383
 31
0.0
  0
ARC
  5
6124
330
1F
100
AcDbEntity
  8
Object
 62
     0
 48
0.3
100
AcDbCircle
 10
568.3681132541858
 20
824.3086653690383
 30
0.0
 40
1.35
100
AcDbArc
 50
180.0
 51
0.0
  0
ARC
  5
6125
330
1F
100
AcDbEntity
  8
Object
 62
     0
 48
0.3
100
AcDbCircle
 10
567.9256270136168
 20
822.1607376065174
 30
0.0
 40
1.857718315833298
100
AcDbArc
 50
256.1468978562146
 51
344.7714912032799
  0
LINE
  5
6126
330
1F
100
AcDbEntity
  8
Object
 62
     0
 48
0.3
100
AcDbLine
 10
569.7181132541859
 20
821.672772015151
 30
0.0
 11
569.7181132541859
 21
820.24208677584
 31
0.0
  0
LINE
  5
6127
330
1F
100
AcDbEntity
  8
Object
 62
     0
 48
0.3
100
AcDbLine
 10
572.4181132541859
 20
827.5896288327794
 30
0.0
 11
572.4181132541859
 21
820.24208677584
 31
0.0
  0
ARC
  5
6128
330
1F
100
AcDbEntity
  8
Object
 62
     0
 48
0.3
100
AcDbCircle
 10
568.3681132541858
 20
830.7720867758398
 30
0.0
 40
4.049999999999999
100
AcDbArc
 50
0.0
 51
180.0
  0
ARC
  5
6129
330
1F
100
AcDbEntity
  8
Object
 62
     0
 48
0.3
100
AcDbCircle
 10
568.3681132541858
 20
830.7720867758398
 30
0.0
 40
1.35
100
AcDbArc
 50
0.0
 51
180.0
  0
LINE
  5
612A
330
1F
100
AcDbEntity
  8
２
 62
     0
 48
25.0
100
AcDbLine
 10
-117.6069841392893
 20
817.5308658634676
 30
0.0
 11
682.3930158607106
 21
817.5308658634675
 31
0.0
  0
LINE
  5
61A6
330
1F
100
AcDbEntity
  8
２
 62
     0
 48
25.0
100
AcDbLine
 10
-117.6069841392893
 20
817.5308658634675
 30
0.0
 11
-117.6069841392893
 21
1367.530865863467
 31
0.0
  0
LINE
  5
61A7
330
1F
100
AcDbEntity
  8
２
 62
     0
 48
25.0
100
AcDbLine
 10
-117.6069841392893
 20
1367.530865863467
 30
0.0
 11
682.3930158607105
 21
1367.530865863467
 31
0.0
  0
LINE
  5
61A8
330
1F
100
AcDbEntity
  8
２
 62
     0
 48
25.0
100
AcDbLine
 10
682.3930158607105
 20
1367.530865863467
 30
0.0
 11
682.3930158607106
 21
817.5308658634675
 31
0.0
  0
MTEXT
  5
6487
330
1F
100
AcDbEntity
  8
４
 62
     0
 48
0.5
100
AcDbMText
 10
171.1613615566535
 20
820.0308658634675
 30
0.0
 40
2.5
 41
7.0048
 71
     5
 72
     5
  1
6
 73
     1
 44
1.0
  0
MTEXT
  5
805E
330
1F
100
AcDbEntity
  8
0
 48
0.5
100
AcDbMText
 10
29.16955816236122
 20
1035.5359660895
 30
0.0
 40
6.0
 41
20.438
 71
     9
 72
     1
  1

 73
     1
 44
1.0
  0
MTEXT
  5
8061
330
1F
100
AcDbEntity
  8
0
 48
0.5
100
AcDbMText
 10
18.39555542707603
 20
1011.50872061242
 30
0.0
 40
6.0
 41
20.438
 71
     9
 72
     1
  1

 73
     1
 44
1.0
  0
MTEXT
  5
9B28
330
1F
100
AcDbEntity
  8
0
 62
     0
 48
0.5
100
AcDbMText
 10
362.8000192422295
 20
825.2718654375003
 30
0.0
 40
6.0
 41
0.0
 71
     1
 72
     5
  1
%%c6・%%c5傾斜取付け部
 73
     1
 44
1.0
  0
LINE
  5
9B86
330
1F
100
AcDbEntity
  8
0
 62
     0
 48
0.5
100
AcDbLine
 10
-26.71109372259389
 20
1040.202732824258
 30
0.0
 11
-26.71109372259389
 21
1150.202732824258
 31
0.0
  0
LINE
  5
9B87
330
1F
100
AcDbEntity
  8
0
 62
     0
 48
0.5
100
AcDbLine
 10
-26.71109372259389
 20
1150.202732824258
 30
0.0
 11
123.2889062774061
 21
1150.202732824258
 31
0.0
  0
LINE
  5
9B88
330
1F
100
AcDbEntity
  8
0
 62
     0
 48
0.5
100
AcDbLine
 10
273.2889062774061
 20
1063.600192445814
 30
0.0
 11
273.2889062774061
 21
953.6001924458144
 31
0.0
  0
LINE
  5
9B8A
330
1F
100
AcDbEntity
  8
0
 62
     0
 48
0.5
100
AcDbLine
 10
273.2889062774061
 20
953.6001924458144
 30
0.0
 11
273.2889062774061
 21
1063.600192445814
 31
0.0
  0
LINE
  5
9B90
330
1F
100
AcDbEntity
  8
0
 62
     0
 48
0.5
100
AcDbLine
 10
-26.71109372259389
 20
1151.802732824258
 30
0.0
 11
123.2889062774061
 21
1151.802732824258
 31
0.0
  0
LINE
  5
9B93
330
1F
100
AcDbEntity
  8
0
 62
     0
 48
0.5
100
AcDbLine
 10
-25.11109372259386
 20
1040.202732824258
 30
0.0
 11
-25.11109372259386
 21
1150.202732824258
 31
0.0
  0
LINE
  5
9B94
330
1F
100
AcDbEntity
  8
0
 62
     0
 48
0.5
100
AcDbLine
 10
274.8889062774062
 20
1063.377053716889
 30
0.0
 11
274.8889062774061
 21
953.6001924458144
 31
0.0
  0
LINE
  5
9B95
330
1F
100
AcDbEntity
  8
0
 62
     0
 48
0.5
100
AcDbLine
 10
274.8889062774061
 20
953.6001924458144
 30
0.0
 11
274.8889062774061
 21
1063.377053716889
 31
0.0
  0
LINE
  5
9B99
330
1F
100
AcDbEntity
  8
0
 62
     0
 48
0.5
100
AcDbLine
 10
422.5596370007921
 20
979.9620120031574
 30
0.0
 11
422.5596370007919
 21
870.4612736554718
 31
0.0
  0
LINE
  5
9B9A
330
1F
100
AcDbEntity
  8
0
 62
     0
 48
0.5
100
AcDbLine
 10
-26.71109372259389
 20
1151.802732824258
 30
0.0
 11
-26.71109372259389
 21
1150.202732824258
 31
0.0
  0
LINE
  5
9C43
330
1F
100
AcDbEntity
  8
0
 62
     0
 48
0.5
100
AcDbLine
 10
-25.11109372259386
 20
1116.406727460657
 30
0.0
 11
-8.211093722594
 21
1116.406727460657
 31
0.0
  0
LINE
  5
9C44
330
1F
100
AcDbEntity
  8
0
 62
     0
 48
0.5
100
AcDbLine
 10
-8.211093722594
 20
1120.206727460657
 30
0.0
 11
-25.11109372259386
 21
1120.206727460657
 31
0.0
  0
LINE
  5
9C46
330
1F
100
AcDbEntity
  8
0
 62
     0
 48
0.5
100
AcDbLine
 10
-25.11109372259386
 20
1120.206727460657
 30
0.0
 11
-25.11109372259386
 21
1116.406727460657
 31
0.0
  0
LINE
  5
9C47
330
1F
100
AcDbEntity
  8
0
 62
     0
 48
0.5
100
AcDbLine
 10
-8.111093722593864
 20
1116.506727460657
 30
0.0
 11
-8.111093722593864
 21
1120.106727460657
 31
0.0
  0
LINE
  5
9C48
330
1F
100
AcDbEntity
  8
0
 62
     0
 48
0.5
100
AcDbLine
 10
-8.111093722593864
 20
1118.306727460657
 30
0.0
 11
-8.111093722593864
 21
1118.906727460657
 31
0.0
  0
LINE
  5
9C49
330
1F
100
AcDbEntity
  8
0
 62
     0
 48
0.5
100
AcDbLine
 10
-8.211093722594
 20
1120.206727460657
 30
0.0
 11
-8.111093722593864
 21
1120.106727460657
 31
0.0
  0
LINE
  5
9C4A
330
1F
100
AcDbEntity
  8
0
 62
     0
 48
0.5
100
AcDbLine
 10
-8.111093722593864
 20
1116.506727460657
 30
0.0
 11
-8.211093722594
 21
1116.406727460657
 31
0.0
  0
LINE
  5
9C4B
330
1F
100
AcDbEntity
  8
0
 62
     0
 48
0.5
100
AcDbLine
 10
-8.111093722593864
 20
1118.906727460657
 30
0.0
 11
-8.111093722593864
 21
1117.706727460657
 31
0.0
  0
LINE
  5
9C4C
330
1F
100
AcDbEntity
  8
0
 62
     0
 48
0.5
100
AcDbLine
 10
106.388906277406
 20
1120.206727460657
 30
0.0
 11
123.2889062774061
 21
1120.206727460657
 31
0.0
  0
LINE
  5
9C4D
330
1F
100
AcDbEntity
  8
0
 62
     0
 48
0.5
100
AcDbLine
 10
123.2889062774061
 20
1116.406727460657
 30
0.0
 11
106.388906277406
 21
1116.406727460657
 31
0.0
  0
LINE
  5
9C4E
330
1F
100
AcDbEntity
  8
0
 62
     0
 48
0.5
100
AcDbLine
 10
-8.111093722593864
 20
1118.906727460657
 30
0.0
 11
8.425323067776275
 21
1118.906727460657
 31
0.0
  0
LINE
  5
9C4F
330
1F
100
AcDbEntity
  8
0
 62
     0
 48
0.5
100
AcDbLine
 10
-8.111093722593864
 20
1117.706727460657
 30
0.0
 11
8.425323067776275
 21
1117.706727460657
 31
0.0
  0
LINE
  5
9C52
330
1F
100
AcDbEntity
  8
0
 62
     0
 48
0.5
100
AcDbLine
 10
106.2889062774061
 20
1118.306727460657
 30
0.0
 11
106.2889062774061
 21
1118.906727460657
 31
0.0
  0
LINE
  5
9C53
330
1F
100
AcDbEntity
  8
0
 62
     0
 48
0.5
100
AcDbLine
 10
106.2889062774061
 20
1116.506727460657
 30
0.0
 11
106.2889062774061
 21
1120.106727460657
 31
0.0
  0
LINE
  5
9C54
330
1F
100
AcDbEntity
  8
0
 62
     0
 48
0.5
100
AcDbLine
 10
106.2889062774061
 20
1120.106727460657
 30
0.0
 11
106.388906277406
 21
1120.206727460657
 31
0.0
  0
LINE
  5
9C55
330
1F
100
AcDbEntity
  8
0
 62
     0
 48
0.5
100
AcDbLine
 10
106.2889062774061
 20
1116.506727460657
 30
0.0
 11
106.388906277406
 21
1116.406727460657
 31
0.0
  0
LINE
  5
9C56
330
1F
100
AcDbEntity
  8
0
 62
     0
 48
0.5
100
AcDbLine
 10
106.2889062774061
 20
1118.906727460657
 30
0.0
 11
106.2889062774061
 21
1117.706727460657
 31
0.0
  0
LINE
  5
9C57
330
1F
100
AcDbEntity
  8
0
 62
     0
 48
0.5
100
AcDbLine
 10
123.2889062774061
 20
1120.206727460657
 30
0.0
 11
123.2889062774061
 21
1116.406727460657
 31
0.0
  0
LINE
  5
9C5A
330
1F
100
AcDbEntity
  8
0
 62
     0
 48
0.5
100
AcDbLine
 10
124.888906277406
 20
1120.206727460657
 30
0.0
 11
124.888906277406
 21
1116.406727460657
 31
0.0
  0
LINE
  5
9C6C
330
1F
100
AcDbEntity
  8
0
 62
     0
 48
0.5
100
AcDbLine
 10
8.425323067776275
 20
1118.906727460657
 30
0.0
 11
106.2889062774061
 21
1118.906727460657
 31
0.0
  0
LINE
  5
9C6D
330
1F
100
AcDbEntity
  8
0
 62
     0
 48
0.5
100
AcDbLine
 10
8.425323067776275
 20
1117.706727460657
 30
0.0
 11
106.2889062774061
 21
1117.706727460657
 31
0.0
  0
ARC
  5
9CC7
330
1F
100
AcDbEntity
  8
0
 62
     0
 48
0.3
100
AcDbCircle
 10
-27.3140837407675
 20
1119.806727460657
 30
0.0
 40
1.104185135891991
100
AcDbArc
 50
153.075075309887
 51
206.9249246901129
  0
LINE
  5
9CC8
330
1F
100
AcDbEntity
  8
0
 62
     0
 48
0.3
100
AcDbLine
 10
-28.41109372259393
 20
1118.306727460657
 30
0.0
 11
-28.41109372259393
 21
1119.306727460657
 31
0.0
  0
ARC
  5
9CC9
330
1F
100
AcDbEntity
  8
0
 62
     0
 48
0.3
100
AcDbCircle
 10
-27.26680370363101
 20
1116.806727427968
 30
0.0
 40
1.146539940593713
100
AcDbArc
 50
154.1450295252206
 51
205.8549704747793
  0
LINE
  5
9CCA
330
1F
100
AcDbEntity
  8
0
 62
     0
 48
0.3
100
AcDbLine
 10
-28.41109372259393
 20
1116.826454230149
 30
0.0
 11
-28.41109372259393
 21
1117.306727460657
 31
0.0
  0
LINE
  5
9CCB
330
1F
100
AcDbEntity
  8
0
 62
     0
 48
0.3
100
AcDbLine
 10
-28.41109372259393
 20
1119.827733475383
 30
0.0
 11
-28.41109372259393
 21
1116.799138731454
 31
0.0
  0
ARC
  5
9CCC
330
1F
100
AcDbEntity
  8
0
 62
     0
 48
0.3
100
AcDbCircle
 10
-23.91109372259393
 20
1118.306727460657
 30
0.0
 40
4.5
100
AcDbArc
 50
167.160411228867
 51
192.8395884069044
  0
LINE
  5
9CCD
330
1F
100
AcDbEntity
  8
0
 62
     0
 48
0.3
100
AcDbLine
 10
-28.41109372259393
 20
1117.306727460657
 30
0.0
 11
-28.41109372259393
 21
1118.306727460657
 31
0.0
  0
LINE
  5
9CCE
330
1F
100
AcDbEntity
  8
0
100
AcDbLine
 10
-26.91109372259393
 20
1119.306727460657
 30
0.0
 11
-26.71109372259389
 21
1119.306727460657
 31
0.0
  0
LINE
  5
9CCF
330
1F
100
AcDbEntity
  8
0
100
AcDbLine
 10
-26.91109372259393
 20
1120.306727460657
 30
0.0
 11
-26.71109372259389
 21
1120.306727460657
 31
0.0
  0
LINE
  5
9CD0
330
1F
100
AcDbEntity
  8
0
100
AcDbLine
 10
-26.91109372259393
 20
1116.306727460657
 30
0.0
 11
-26.71109372259389
 21
1116.306727460657
 31
0.0
  0
LINE
  5
9CD1
330
1F
100
AcDbEntity
  8
0
100
AcDbLine
 10
-26.91109372259393
 20
1117.306727460657
 30
0.0
 11
-26.71109372259389
 21
1117.306727460657
 31
0.0
  0
LINE
  5
9CD2
330
1F
100
AcDbEntity
  8
0
 62
     0
 48
0.3
100
AcDbLine
 10
-26.71109372259389
 20
1116.306727460657
 30
0.0
 11
-26.71109372259389
 21
1120.306727460657
 31
0.0
  0
LINE
  5
9CD3
330
1F
100
AcDbEntity
  8
0
 62
     0
 48
0.3
100
AcDbLine
 10
-28.29857591628979
 20
1116.306727460657
 30
0.0
 11
-26.91109372259393
 21
1116.306727460657
 31
0.0
  0
LINE
  5
9CD4
330
1F
100
AcDbEntity
  8
0
 62
     0
 48
0.3
100
AcDbLine
 10
-28.29857591628979
 20
1117.306727460657
 30
0.0
 11
-26.91109372259393
 21
1117.306727460657
 31
0.0
  0
LINE
  5
9CD5
330
1F
100
AcDbEntity
  8
0
 62
     0
 48
0.3
100
AcDbLine
 10
-26.91109372259393
 20
1120.306727460657
 30
0.0
 11
-28.29857591628979
 21
1120.306727460657
 31
0.0
  0
LINE
  5
9CD6
330
1F
100
AcDbEntity
  8
0
 62
     0
 48
0.3
100
AcDbLine
 10
-28.29857591628979
 20
1119.306727460657
 30
0.0
 11
-26.91109372259393
 21
1119.306727460657
 31
0.0
  0
LINE
  5
9D19
330
1F
100
AcDbEntity
  8
0
 62
     0
 48
0.3
100
AcDbLine
 10
424.1471191944881
 20
947.6078532889347
 30
0.0
 11
422.7596370007921
 21
947.6078532889347
 31
0.0
  0
LINE
  5
9D1A
330
1F
100
AcDbEntity
  8
0
 62
     0
 48
0.3
100
AcDbLine
 10
422.7596370007921
 20
946.6078532889348
 30
0.0
 11
424.1471191944881
 21
946.6078532889348
 31
0.0
  0
LINE
  5
9D1B
330
1F
100
AcDbEntity
  8
0
 62
     0
 48
0.3
100
AcDbLine
 10
424.1471191944881
 20
949.6078532889347
 30
0.0
 11
422.7596370007921
 21
949.6078532889347
 31
0.0
  0
LINE
  5
9D1C
330
1F
100
AcDbEntity
  8
0
 62
     0
 48
0.3
100
AcDbLine
 10
424.1471191944881
 20
950.6078532889347
 30
0.0
 11
422.7596370007921
 21
950.6078532889347
 31
0.0
  0
LINE
  5
9D1D
330
1F
100
AcDbEntity
  8
0
 62
     0
 48
0.3
100
AcDbLine
 10
422.559637000792
 20
950.6078532889347
 30
0.0
 11
422.559637000792
 21
946.6078532889348
 31
0.0
  0
LINE
  5
9D1E
330
1F
100
AcDbEntity
  8
0
100
AcDbLine
 10
422.7596370007921
 20
949.6078532889347
 30
0.0
 11
422.559637000792
 21
949.6078532889347
 31
0.0
  0
LINE
  5
9D1F
330
1F
100
AcDbEntity
  8
0
100
AcDbLine
 10
422.7596370007921
 20
950.6078532889347
 30
0.0
 11
422.559637000792
 21
950.6078532889347
 31
0.0
  0
LINE
  5
9D20
330
1F
100
AcDbEntity
  8
0
100
AcDbLine
 10
422.7596370007921
 20
946.6078532889348
 30
0.0
 11
422.559637000792
 21
946.6078532889348
 31
0.0
  0
LINE
  5
9D21
330
1F
100
AcDbEntity
  8
0
100
AcDbLine
 10
422.7596370007921
 20
947.6078532889347
 30
0.0
 11
422.559637000792
 21
947.6078532889347
 31
0.0
  0
LINE
  5
9D22
330
1F
100
AcDbEntity
  8
0
 62
     0
 48
0.3
100
AcDbLine
 10
424.2596370007921
 20
949.6078532889347
 30
0.0
 11
424.2596370007921
 21
948.6078532889347
 31
0.0
  0
ARC
  5
9D23
330
1F
100
AcDbEntity
  8
0
 62
     0
 48
0.3
100
AcDbCircle
 10
419.7596370007921
 20
948.6078532889347
 30
0.0
 40
4.5
100
AcDbArc
 50
347.160411228867
 51
12.83958840690441
  0
LINE
  5
9D24
330
1F
100
AcDbEntity
  8
0
 62
     0
 48
0.3
100
AcDbLine
 10
424.2596370007921
 20
947.0868472742091
 30
0.0
 11
424.2596370007921
 21
950.1154420181375
 31
0.0
  0
LINE
  5
9D25
330
1F
100
AcDbEntity
  8
0
 62
     0
 48
0.3
100
AcDbLine
 10
424.2596370007921
 20
950.0881265194426
 30
0.0
 11
424.2596370007921
 21
949.6078532889347
 31
0.0
  0
ARC
  5
9D26
330
1F
100
AcDbEntity
  8
0
 62
     0
 48
0.3
100
AcDbCircle
 10
423.1153469818291
 20
950.1078533216238
 30
0.0
 40
1.146539940593713
100
AcDbArc
 50
334.1450295252206
 51
25.85497047477932
  0
LINE
  5
9D27
330
1F
100
AcDbEntity
  8
0
 62
     0
 48
0.3
100
AcDbLine
 10
424.2596370007921
 20
948.6078532889347
 30
0.0
 11
424.2596370007921
 21
947.6078532889347
 31
0.0
  0
ARC
  5
9D28
330
1F
100
AcDbEntity
  8
0
 62
     0
 48
0.3
100
AcDbCircle
 10
423.1626270189656
 20
947.1078532889347
 30
0.0
 40
1.104185135891991
100
AcDbArc
 50
333.075075309887
 51
26.924924690113
  0
MTEXT
  5
9D2A
330
1F
100
AcDbEntity
  8
0
 62
     0
 48
0.5
100
AcDbMText
 10
1.215973436992811
 20
1032.762877753925
 30
0.0
 40
6.0
 41
0.0
 71
     1
 72
     1
  1
M10ボルト（孔径%%c11～12）
 73
     1
 44
1.0
  0
LEADER
  5
9D2B
330
1F
100
AcDbEntity
  8
0
 62
     0
 48
0.5
100
AcDbLeader
  3
ISO-25
 73
     0
 40
6.0
 76
     3
 10
-27.52577234835885
 20
1082.002282359482
 30
0.0
 10
-2.597344886233855
 20
1029.385575557092
 30
0.0
 10
-1.187796150909576
 20
1029.385575557092
 30
0.0
340
9D2C
213
0.0
223
-3.0
233
0.0
1001
ACAD
1000
DSTYLE
1002
{
1070
   147
1040
3.0
1070
    77
1070
     0
1002
}
  0
MTEXT
  5
9D2C
102
{ACAD_REACTORS
330
9D2B
102
}
330
1F
100
AcDbEntity
  8
0
 62
     0
 48
0.5
100
AcDbMText
 10
87.30455956487459
 20
1175.438614636807
 30
0.0
 40
6.0
 41
20.438
 71
     1
 72
     1
  1

 73
     1
 44
1.0
  0
LEADER
  5
9D2D
330
1F
100
AcDbEntity
  8
0
 62
     0
 48
0.5
100
AcDbLeader
  3
ISO-25
 40
6.0
 76
     3
 10
123.7209753248843
 20
1083.537994361485
 30
0.0
 10
148.6494027870093
 20
1030.921287559095
 30
0.0
 10
150.0589515223335
 20
1030.921287559095
 30
0.0
213
0.0
223
-3.0
233
0.0
1001
ACAD
1000
DSTYLE
1002
{
1070
   147
1040
3.0
1070
    77
1070
     0
1002
}
  0
MTEXT
  5
9D2E
330
1F
100
AcDbEntity
  8
0
 62
     0
 48
0.5
100
AcDbMText
 10
152.4627211102359
 20
1034.298589755928
 30
0.0
 40
6.0
 41
0.0
 71
     1
 72
     1
  1
M10ジョイント\P（孔径%%c11～12）
 73
     1
 44
1.0
  0
LEADER
  5
9D2F
330
1F
100
AcDbEntity
  8
0
 62
     0
 48
0.5
100
AcDbLeader
  3
ISO-25
 40
6.0
 76
     3
 10
274.088906277406
 20
998.9256654116658
 30
0.0
 10
299.017333739531
 20
946.3089586092761
 30
0.0
 10
300.4268824748553
 20
946.3089586092761
 30
0.0
213
0.0
223
-3.0
233
0.0
1001
ACAD
1000
DSTYLE
1002
{
1070
   147
1040
3.0
1070
    77
1070
     0
1002
}
  0
MTEXT
  5
9D30
330
1F
100
AcDbEntity
  8
0
 62
     0
 48
0.5
100
AcDbMText
 10
302.8306520627577
 20
949.6862608061089
 30
0.0
 40
6.0
 41
0.0
 71
     1
 72
     1
  1
中間貫通部\P（孔径%%c15～17）
 73
     1
 44
1.0
  0
LINE
  5
A117
330
1F
100
AcDbEntity
  8
0
 62
     0
 48
0.5
100
AcDbLine
 10
422.559637000792
 20
950.507853288934
 30
0.0
 11
422.559637000792
 21
946.707853288934
 31
0.0
  0
LINE
  5
A126
330
1F
100
AcDbEntity
  8
0
 62
     0
 48
0.5
100
AcDbLine
 10
-25.11109372259386
 20
1082.606727460657
 30
0.0
 11
-8.211093722594
 21
1082.606727460657
 31
0.0
  0
LINE
  5
A127
330
1F
100
AcDbEntity
  8
0
 62
     0
 48
0.5
100
AcDbLine
 10
-8.211093722594
 20
1086.406727460657
 30
0.0
 11
-25.11109372259386
 21
1086.406727460657
 31
0.0
  0
LINE
  5
A128
330
1F
100
AcDbEntity
  8
0
 62
     0
 48
0.3
100
AcDbLine
 10
-26.91109372259393
 20
1086.506727460657
 30
0.0
 11
-28.29857591628979
 21
1086.506727460657
 31
0.0
  0
LINE
  5
A129
330
1F
100
AcDbEntity
  8
0
 62
     0
 48
0.3
100
AcDbLine
 10
-28.29857591628979
 20
1083.506727460657
 30
0.0
 11
-26.91109372259393
 21
1083.506727460657
 31
0.0
  0
LINE
  5
A12A
330
1F
100
AcDbEntity
  8
0
 62
     0
 48
0.3
100
AcDbLine
 10
-28.29857591628979
 20
1085.506727460657
 30
0.0
 11
-26.91109372259393
 21
1085.506727460657
 31
0.0
  0
LINE
  5
A12B
330
1F
100
AcDbEntity
  8
0
 62
     0
 48
0.3
100
AcDbLine
 10
-28.29857591628979
 20
1082.506727460657
 30
0.0
 11
-26.91109372259393
 21
1082.506727460657
 31
0.0
  0
ARC
  5
A12C
330
1F
100
AcDbEntity
  8
0
 62
     0
 48
0.3
100
AcDbCircle
 10
-27.3140837407675
 20
1086.006727460657
 30
0.0
 40
1.104185135891991
100
AcDbArc
 50
153.075075309887
 51
206.9249246901129
  0
LINE
  5
A12D
330
1F
100
AcDbEntity
  8
0
 62
     0
 48
0.3
100
AcDbLine
 10
-28.41109372259393
 20
1086.027733475383
 30
0.0
 11
-28.41109372259393
 21
1082.999138731454
 31
0.0
  0
LINE
  5
A12E
330
1F
100
AcDbEntity
  8
0
 62
     0
 48
0.3
100
AcDbLine
 10
-28.41109372259393
 20
1084.506727460657
 30
0.0
 11
-28.41109372259393
 21
1085.506727460657
 31
0.0
  0
LINE
  5
A12F
330
1F
100
AcDbEntity
  8
0
 62
     0
 48
0.3
100
AcDbLine
 10
-28.41109372259393
 20
1083.026454230149
 30
0.0
 11
-28.41109372259393
 21
1083.506727460657
 31
0.0
  0
ARC
  5
A130
330
1F
100
AcDbEntity
  8
0
 62
     0
 48
0.3
100
AcDbCircle
 10
-23.91109372259393
 20
1084.506727460657
 30
0.0
 40
4.5
100
AcDbArc
 50
167.160411228867
 51
192.8395884069044
  0
LINE
  5
A131
330
1F
100
AcDbEntity
  8
0
 62
     0
 48
0.3
100
AcDbLine
 10
-28.41109372259393
 20
1083.506727460657
 30
0.0
 11
-28.41109372259393
 21
1084.506727460657
 31
0.0
  0
ARC
  5
A132
330
1F
100
AcDbEntity
  8
0
 62
     0
 48
0.3
100
AcDbCircle
 10
-27.26680370363101
 20
1083.006727427968
 30
0.0
 40
1.146539940593713
100
AcDbArc
 50
154.1450295252206
 51
205.8549704747793
  0
LINE
  5
A133
330
1F
100
AcDbEntity
  8
0
 62
     0
 48
0.3
100
AcDbLine
 10
-26.71109372259389
 20
1082.506727460657
 30
0.0
 11
-26.71109372259389
 21
1086.506727460657
 31
0.0
  0
LINE
  5
A134
330
1F
100
AcDbEntity
  8
0
 62
     0
 48
0.5
100
AcDbLine
 10
-25.11109372259386
 20
1086.406727460657
 30
0.0
 11
-25.11109372259386
 21
1082.606727460657
 31
0.0
  0
LINE
  5
A135
330
1F
100
AcDbEntity
  8
0
100
AcDbLine
 10
-26.91109372259393
 20
1085.506727460657
 30
0.0
 11
-26.71109372259389
 21
1085.506727460657
 31
0.0
  0
LINE
  5
A136
330
1F
100
AcDbEntity
  8
0
100
AcDbLine
 10
-26.91109372259393
 20
1083.506727460657
 30
0.0
 11
-26.71109372259389
 21
1083.506727460657
 31
0.0
  0
LINE
  5
A137
330
1F
100
AcDbEntity
  8
0
100
AcDbLine
 10
-26.91109372259393
 20
1082.506727460657
 30
0.0
 11
-26.71109372259389
 21
1082.506727460657
 31
0.0
  0
LINE
  5
A138
330
1F
100
AcDbEntity
  8
0
100
AcDbLine
 10
-26.91109372259393
 20
1086.506727460657
 30
0.0
 11
-26.71109372259389
 21
1086.506727460657
 31
0.0
  0
LINE
  5
A139
330
1F
100
AcDbEntity
  8
0
 62
     0
 48
0.5
100
AcDbLine
 10
106.388906277406
 20
1086.406727460657
 30
0.0
 11
123.2889062774061
 21
1086.406727460657
 31
0.0
  0
LINE
  5
A13A
330
1F
100
AcDbEntity
  8
0
 62
     0
 48
0.5
100
AcDbLine
 10
123.2889062774061
 20
1082.606727460657
 30
0.0
 11
106.388906277406
 21
1082.606727460657
 31
0.0
  0
LINE
  5
A13B
330
1F
100
AcDbEntity
  8
0
 62
     0
 48
0.5
100
AcDbLine
 10
8.425323067776275
 20
1083.906727460657
 30
0.0
 11
106.2889062774061
 21
1083.906727460657
 31
0.0
  0
LINE
  5
A13C
330
1F
100
AcDbEntity
  8
0
 62
     0
 48
0.5
100
AcDbLine
 10
8.425323067776275
 20
1085.106727460657
 30
0.0
 11
106.2889062774061
 21
1085.106727460657
 31
0.0
  0
LINE
  5
A13D
330
1F
100
AcDbEntity
  8
0
 62
     0
 48
0.5
100
AcDbLine
 10
-8.111093722593864
 20
1083.906727460657
 30
0.0
 11
8.425323067776275
 21
1083.906727460657
 31
0.0
  0
LINE
  5
A13E
330
1F
100
AcDbEntity
  8
0
 62
     0
 48
0.5
100
AcDbLine
 10
-8.111093722593864
 20
1085.106727460657
 30
0.0
 11
8.425323067776275
 21
1085.106727460657
 31
0.0
  0
LINE
  5
A13F
330
1F
100
AcDbEntity
  8
0
 62
     0
 48
0.5
100
AcDbLine
 10
-8.111093722593864
 20
1082.706727460657
 30
0.0
 11
-8.111093722593864
 21
1086.306727460657
 31
0.0
  0
LINE
  5
A140
330
1F
100
AcDbEntity
  8
0
 62
     0
 48
0.5
100
AcDbLine
 10
-8.111093722593864
 20
1082.706727460657
 30
0.0
 11
-8.211093722594
 21
1082.606727460657
 31
0.0
  0
LINE
  5
A141
330
1F
100
AcDbEntity
  8
0
 62
     0
 48
0.5
100
AcDbLine
 10
-8.111093722593864
 20
1085.106727460657
 30
0.0
 11
-8.111093722593864
 21
1083.906727460657
 31
0.0
  0
LINE
  5
A142
330
1F
100
AcDbEntity
  8
0
 62
     0
 48
0.5
100
AcDbLine
 10
-8.111093722593864
 20
1084.506727460657
 30
0.0
 11
-8.111093722593864
 21
1085.106727460657
 31
0.0
  0
LINE
  5
A143
330
1F
100
AcDbEntity
  8
0
 62
     0
 48
0.5
100
AcDbLine
 10
-8.211093722594
 20
1086.406727460657
 30
0.0
 11
-8.111093722593864
 21
1086.306727460657
 31
0.0
  0
LINE
  5
A144
330
1F
100
AcDbEntity
  8
0
 62
     0
 48
0.5
100
AcDbLine
 10
106.2889062774061
 20
1082.706727460657
 30
0.0
 11
106.2889062774061
 21
1086.306727460657
 31
0.0
  0
LINE
  5
A145
330
1F
100
AcDbEntity
  8
0
 62
     0
 48
0.5
100
AcDbLine
 10
106.2889062774061
 20
1084.506727460657
 30
0.0
 11
106.2889062774061
 21
1085.106727460657
 31
0.0
  0
LINE
  5
A146
330
1F
100
AcDbEntity
  8
0
 62
     0
 48
0.5
100
AcDbLine
 10
106.2889062774061
 20
1085.106727460657
 30
0.0
 11
106.2889062774061
 21
1083.906727460657
 31
0.0
  0
LINE
  5
A147
330
1F
100
AcDbEntity
  8
0
 62
     0
 48
0.5
100
AcDbLine
 10
106.2889062774061
 20
1082.706727460657
 30
0.0
 11
106.388906277406
 21
1082.606727460657
 31
0.0
  0
LINE
  5
A148
330
1F
100
AcDbEntity
  8
0
 62
     0
 48
0.5
100
AcDbLine
 10
106.2889062774061
 20
1086.306727460657
 30
0.0
 11
106.388906277406
 21
1086.406727460657
 31
0.0
  0
LINE
  5
A14B
330
1F
100
AcDbEntity
  8
0
 62
     0
 48
0.5
100
AcDbLine
 10
124.888906277406
 20
1086.406727460657
 30
0.0
 11
124.888906277406
 21
1082.606727460657
 31
0.0
  0
LINE
  5
A14C
330
1F
100
AcDbEntity
  8
0
 62
     0
 48
0.5
100
AcDbLine
 10
123.2889062774061
 20
1086.406727460657
 30
0.0
 11
123.2889062774061
 21
1082.606727460657
 31
0.0
  0
LINE
  5
A15C
330
1F
100
AcDbEntity
  8
0
 62
     0
 48
0.3
100
AcDbLine
 10
424.1471191944881
 20
916.8078532889348
 30
0.0
 11
422.7596370007921
 21
916.8078532889348
 31
0.0
  0
LINE
  5
A15D
330
1F
100
AcDbEntity
  8
0
 62
     0
 48
0.3
100
AcDbLine
 10
424.1471191944881
 20
913.8078532889348
 30
0.0
 11
422.7596370007921
 21
913.8078532889348
 31
0.0
  0
LINE
  5
A15E
330
1F
100
AcDbEntity
  8
0
 62
     0
 48
0.3
100
AcDbLine
 10
422.7596370007921
 20
912.8078532889347
 30
0.0
 11
424.1471191944881
 21
912.8078532889347
 31
0.0
  0
LINE
  5
A15F
330
1F
100
AcDbEntity
  8
0
 62
     0
 48
0.3
100
AcDbLine
 10
424.1471191944881
 20
915.8078532889348
 30
0.0
 11
422.7596370007921
 21
915.8078532889348
 31
0.0
  0
LINE
  5
A167
330
1F
100
AcDbEntity
  8
0
 62
     0
 48
0.3
100
AcDbLine
 10
422.559637000792
 20
916.8078532889348
 30
0.0
 11
422.559637000792
 21
912.8078532889347
 31
0.0
  0
LINE
  5
A169
330
1F
100
AcDbEntity
  8
0
 62
     0
 48
0.5
100
AcDbLine
 10
422.559637000792
 20
916.7078532889341
 30
0.0
 11
422.559637000792
 21
912.9078532889339
 31
0.0
  0
LINE
  5
A16A
330
1F
100
AcDbEntity
  8
0
100
AcDbLine
 10
422.7596370007921
 20
915.8078532889348
 30
0.0
 11
422.559637000792
 21
915.8078532889348
 31
0.0
  0
LINE
  5
A16B
330
1F
100
AcDbEntity
  8
0
100
AcDbLine
 10
422.7596370007921
 20
913.8078532889348
 30
0.0
 11
422.559637000792
 21
913.8078532889348
 31
0.0
  0
LINE
  5
A16C
330
1F
100
AcDbEntity
  8
0
100
AcDbLine
 10
422.7596370007921
 20
912.8078532889347
 30
0.0
 11
422.559637000792
 21
912.8078532889347
 31
0.0
  0
LINE
  5
A16D
330
1F
100
AcDbEntity
  8
0
100
AcDbLine
 10
422.7596370007921
 20
916.8078532889348
 30
0.0
 11
422.559637000792
 21
916.8078532889348
 31
0.0
  0
LINE
  5
A16E
330
1F
100
AcDbEntity
  8
0
 62
     0
 48
0.3
100
AcDbLine
 10
424.2596370007921
 20
913.2868472742092
 30
0.0
 11
424.2596370007921
 21
916.3154420181376
 31
0.0
  0
LINE
  5
A16F
330
1F
100
AcDbEntity
  8
0
 62
     0
 48
0.3
100
AcDbLine
 10
424.2596370007921
 20
916.2881265194426
 30
0.0
 11
424.2596370007921
 21
915.8078532889348
 31
0.0
  0
ARC
  5
A170
330
1F
100
AcDbEntity
  8
0
 62
     0
 48
0.3
100
AcDbCircle
 10
423.1153469818291
 20
916.3078533216237
 30
0.0
 40
1.146539940593713
100
AcDbArc
 50
334.1450295252206
 51
25.85497047477932
  0
LINE
  5
A171
330
1F
100
AcDbEntity
  8
0
 62
     0
 48
0.3
100
AcDbLine
 10
424.2596370007921
 20
915.8078532889348
 30
0.0
 11
424.2596370007921
 21
914.8078532889348
 31
0.0
  0
ARC
  5
A172
330
1F
100
AcDbEntity
  8
0
 62
     0
 48
0.3
100
AcDbCircle
 10
419.7596370007921
 20
914.8078532889348
 30
0.0
 40
4.5
100
AcDbArc
 50
347.160411228867
 51
12.83958840690441
  0
LINE
  5
A173
330
1F
100
AcDbEntity
  8
0
 62
     0
 48
0.3
100
AcDbLine
 10
424.2596370007921
 20
914.8078532889348
 30
0.0
 11
424.2596370007921
 21
913.8078532889348
 31
0.0
  0
ARC
  5
A174
330
1F
100
AcDbEntity
  8
0
 62
     0
 48
0.3
100
AcDbCircle
 10
423.1626270189656
 20
913.3078532889348
 30
0.0
 40
1.104185135891991
100
AcDbArc
 50
333.075075309887
 51
26.924924690113
  0
LINE
  5
A32B
330
1F
100
AcDbEntity
  8
0
 62
     0
 48
0.3
100
AcDbLine
 10
-28.19505835403208
 20
1236.409847990048
 30
0.0
 11
-28.19505835403208
 21
1256.409847990048
 31
0.0
  0
ARC
  5
A32C
330
1F
100
AcDbEntity
  8
0
 62
     0
 48
0.3
100
AcDbCircle
 10
-31.21000844490015
 20
1253.909847990048
 30
0.0
 40
5.520925679459959
100
AcDbArc
 50
153.075075309887
 51
206.9249246901129
  0
LINE
  5
A32D
330
1F
100
AcDbEntity
  8
0
 62
     0
 48
0.3
100
AcDbLine
 10
-36.69505835403231
 20
1246.409847990048
 30
0.0
 11
-36.69505835403231
 21
1251.409847990048
 31
0.0
  0
ARC
  5
A32E
330
1F
100
AcDbEntity
  8
0
 62
     0
 48
0.3
100
AcDbCircle
 10
-30.97360825921771
 20
1238.909847826603
 30
0.0
 40
5.732699702968568
100
AcDbArc
 50
154.1450295252206
 51
205.8549704747793
  0
LINE
  5
A32F
330
1F
100
AcDbEntity
  8
0
 62
     0
 48
0.3
100
AcDbLine
 10
-36.69505835403231
 20
1239.008481837508
 30
0.0
 11
-36.69505835403231
 21
1241.409847990048
 31
0.0
  0
LINE
  5
A330
330
1F
100
AcDbEntity
  8
0
 62
     0
 48
0.3
100
AcDbLine
 10
-36.69505835403231
 20
1254.014878063676
 30
0.0
 11
-36.69505835403231
 21
1238.871904344034
 31
0.0
  0
ARC
  5
A331
330
1F
100
AcDbEntity
  8
0
 62
     0
 48
0.3
100
AcDbCircle
 10
-14.19505835403231
 20
1246.409847990048
 30
0.0
 40
22.5
100
AcDbArc
 50
167.160411228867
 51
192.8395884069044
  0
LINE
  5
A332
330
1F
100
AcDbEntity
  8
0
 62
     0
 48
0.3
100
AcDbLine
 10
-36.69505835403231
 20
1241.409847990048
 30
0.0
 11
-36.69505835403231
 21
1246.409847990048
 31
0.0
  0
LINE
  5
A333
330
1F
100
AcDbEntity
  8
0
 62
     0
 48
0.3
100
AcDbLine
 10
-36.13246932251161
 20
1236.409847990048
 30
0.0
 11
-29.19505835403231
 21
1236.409847990048
 31
0.0
  0
LINE
  5
A334
330
1F
100
AcDbEntity
  8
0
 62
     0
 48
0.3
100
AcDbLine
 10
-36.13246932251161
 20
1241.409847990048
 30
0.0
 11
-29.19505835403231
 21
1241.409847990048
 31
0.0
  0
LINE
  5
A335
330
1F
100
AcDbEntity
  8
0
 62
     0
 48
0.3
100
AcDbLine
 10
-29.19505835403231
 20
1256.409847990048
 30
0.0
 11
-36.13246932251161
 21
1256.409847990048
 31
0.0
  0
LINE
  5
A336
330
1F
100
AcDbEntity
  8
0
 62
     0
 48
0.3
100
AcDbLine
 10
-36.13246932251161
 20
1251.409847990048
 30
0.0
 11
-29.19505835403231
 21
1251.409847990048
 31
0.0
  0
LINE
  5
A337
330
1F
100
AcDbEntity
  8
0
100
AcDbLine
 10
-29.19505835403231
 20
1251.409847990048
 30
0.0
 11
-28.19505835403208
 21
1251.409847990048
 31
0.0
  0
LINE
  5
A338
330
1F
100
AcDbEntity
  8
0
100
AcDbLine
 10
-29.19505835403231
 20
1256.409847990048
 30
0.0
 11
-28.19505835403208
 21
1256.409847990048
 31
0.0
  0
LINE
  5
A339
330
1F
100
AcDbEntity
  8
0
100
AcDbLine
 10
-29.19505835403231
 20
1236.409847990048
 30
0.0
 11
-28.19505835403208
 21
1236.409847990048
 31
0.0
  0
LINE
  5
A33A
330
1F
100
AcDbEntity
  8
0
100
AcDbLine
 10
-29.19505835403231
 20
1241.409847990048
 30
0.0
 11
-28.19505835403208
 21
1241.409847990048
 31
0.0
  0
LINE
  5
A375
330
1F
100
AcDbEntity
  8
0
 62
     0
 48
0.5
100
AcDbLine
 10
-28.19505835403208
 20
1197.792130709261
 30
0.0
 11
-28.19505835403208
 21
1295.97890628122
 31
0.0
  0
LINE
  5
A376
330
1F
100
AcDbEntity
  8
0
 62
     0
 48
0.5
100
AcDbLine
 10
-20.19505835403197
 20
1197.792130709261
 30
0.0
 11
-20.19505835403197
 21
1295.97890628122
 31
0.0
  0
LINE
  5
A377
330
1F
100
AcDbEntity
  8
0
 62
     0
 48
0.5
100
AcDbLine
 10
356.8847044508879
 20
1295.978906281219
 30
0.0
 11
356.8847044508879
 21
1197.79213070926
 31
0.0
  0
LINE
  5
A378
330
1F
100
AcDbEntity
  8
0
 62
     0
 48
0.5
100
AcDbLine
 10
364.884704450888
 20
1295.978906281219
 30
0.0
 11
364.884704450888
 21
1197.79213070926
 31
0.0
  0
LINE
  5
A4BE
330
1F
100
AcDbEntity
  8
Object
 62
     0
 48
0.5
100
AcDbLine
 10
87.25042905193276
 20
1236.909847990048
 30
0.0
 11
2.250429051932769
 21
1236.909847990048
 31
0.0
  0
LINE
  5
A4BF
330
1F
100
AcDbEntity
  8
Object
 62
     0
 48
0.5
100
AcDbLine
 10
2.250429051932769
 20
1255.909847990048
 30
0.0
 11
87.25042905193289
 21
1255.909847990048
 31
0.0
  0
LINE
  5
A4C0
330
1F
100
AcDbEntity
  8
Object
 62
     0
 48
0.5
100
AcDbLine
 10
2.250429051932769
 20
1254.409847990048
 30
0.0
 11
2.250429051932769
 21
1238.409847990048
 31
0.0
  0
LINE
  5
A4C1
330
1F
100
AcDbEntity
  8
Object
 62
     0
 48
0.5
100
AcDbLine
 10
-1.884870029569356
 20
1238.609847990048
 30
0.0
 11
-1.884870029569356
 21
1246.409847990048
 31
0.0
  0
LINE
  5
A4C2
330
1F
100
AcDbEntity
  8
Object
 62
     0
 48
0.5
100
AcDbLine
 10
-4.384870029569356
 20
1254.209847990048
 30
0.0
 11
-4.384870029569356
 21
1238.609847990048
 31
0.0
  0
LINE
  5
A4C4
330
1F
100
AcDbEntity
  8
Object
 62
     0
 48
0.5
100
AcDbLine
 10
-4.384870029569356
 20
1238.609847990048
 30
0.0
 11
-4.18487002956931
 21
1238.409847990048
 31
0.0
  0
LINE
  5
A4C5
330
1F
100
AcDbEntity
  8
Object
 62
     0
 48
0.5
100
AcDbLine
 10
-1.884870029569356
 20
1238.609847990048
 30
0.0
 11
-2.084870029569287
 21
1238.409847990048
 31
0.0
  0
LINE
  5
A4C6
330
1F
100
AcDbEntity
  8
Object
 62
     0
 48
0.5
100
AcDbLine
 10
-4.18487002956931
 20
1238.409847990048
 30
0.0
 11
-2.084870029569287
 21
1238.409847990048
 31
0.0
  0
LINE
  5
A4C8
330
1F
100
AcDbEntity
  8
Object
 62
     0
 48
0.5
100
AcDbLine
 10
2.250429051932769
 20
1236.909847990048
 30
0.0
 11
2.250429051932769
 21
1238.409847990048
 31
0.0
  0
LINE
  5
A4C9
330
1F
100
AcDbEntity
  8
Object
 62
     0
 48
0.5
100
AcDbLine
 10
-1.884870029569356
 20
1246.409847990048
 30
0.0
 11
-1.884870029569356
 21
1254.209847990048
 31
0.0
  0
LINE
  5
A4CA
330
1F
100
AcDbEntity
  8
Object
 62
     0
 48
0.5
100
AcDbLine
 10
-1.884870029569356
 20
1248.481268952779
 30
0.0
 11
-4.384870029569356
 21
1246.409847990048
 31
0.0
  0
LINE
  5
A4CB
330
1F
100
AcDbEntity
  8
Object
 62
     0
 48
0.5
100
AcDbLine
 10
-4.184870029569424
 20
1254.409847990048
 30
0.0
 11
-4.384870029569356
 21
1254.209847990048
 31
0.0
  0
LINE
  5
A4CC
330
1F
100
AcDbEntity
  8
Object
 62
     0
 48
0.5
100
AcDbLine
 10
-2.084870029569287
 20
1254.409847990048
 30
0.0
 11
-1.884870029569356
 21
1254.209847990048
 31
0.0
  0
LINE
  5
A4CD
330
1F
100
AcDbEntity
  8
Object
 62
     0
 48
0.5
100
AcDbLine
 10
-2.084870029569287
 20
1254.409847990048
 30
0.0
 11
-4.184870029569424
 21
1254.409847990048
 31
0.0
  0
LINE
  5
A4D3
330
1F
100
AcDbEntity
  8
Object
 62
     0
 48
0.5
100
AcDbLine
 10
2.250429051932769
 20
1255.909847990048
 30
0.0
 11
2.250429051932769
 21
1254.409847990048
 31
0.0
  0
LINE
  5
A4E3
330
1F
100
AcDbEntity
  8
Object
 62
     0
 48
0.5
100
AcDbLine
 10
87.25042905193289
 20
1255.909847990048
 30
0.0
 11
87.25042905193276
 21
1236.909847990048
 31
0.0
  0
LINE
  5
A506
330
1F
100
AcDbEntity
  8
Object
 62
     0
 48
0.5
100
AcDbLine
 10
87.25042905193282
 20
1249.409847990048
 30
0.0
 11
113.4146833076365
 21
1249.409847990048
 31
0.0
  0
LINE
  5
A507
330
1F
100
AcDbEntity
  8
Object
 62
     0
 48
0.5
100
AcDbLine
 10
113.4146833076365
 20
1243.409847990048
 30
0.0
 11
87.25042905193282
 21
1243.409847990048
 31
0.0
  0
LINE
  5
A523
330
1F
100
AcDbEntity
  8
Object
 62
     0
 48
0.5
100
AcDbLine
 10
229.4463831113235
 20
1236.909847990048
 30
0.0
 11
144.4463831113236
 21
1236.909847990048
 31
0.0
  0
LINE
  5
A524
330
1F
100
AcDbEntity
  8
Object
 62
     0
 48
0.5
100
AcDbLine
 10
144.4463831113236
 20
1255.909847990048
 30
0.0
 11
229.4463831113235
 21
1255.909847990048
 31
0.0
  0
LINE
  5
A528
330
1F
100
AcDbEntity
  8
Object
 62
     0
 48
0.5
100
AcDbLine
 10
144.4463831113236
 20
1243.409847990048
 30
0.0
 11
120.3836396033561
 21
1243.409847990048
 31
0.0
  0
LINE
  5
A529
330
1F
100
AcDbEntity
  8
Object
 62
     0
 48
0.5
100
AcDbLine
 10
120.3836396033561
 20
1249.409847990048
 30
0.0
 11
144.4463831113236
 21
1249.409847990048
 31
0.0
  0
LINE
  5
A52A
330
1F
100
AcDbEntity
  8
HIDDEN2
 62
     0
 48
0.5
100
AcDbLine
 10
144.4463831113236
 20
1254.409847990048
 30
0.0
 11
144.4463831113236
 21
1238.409847990048
 31
0.0
  0
LINE
  5
A52B
330
1F
100
AcDbEntity
  8
Object
 62
     0
 48
0.5
100
AcDbLine
 10
144.4463831113236
 20
1236.909847990048
 30
0.0
 11
144.4463831113236
 21
1255.909847990048
 31
0.0
  0
LINE
  5
A52C
330
1F
100
AcDbEntity
  8
HIDDEN2
 62
     0
 48
0.5
100
AcDbLine
 10
144.4463831113236
 20
1246.409847990048
 30
0.0
 11
144.4463831113236
 21
1254.409847990048
 31
0.0
  0
LINE
  5
A52D
330
1F
100
AcDbEntity
  8
0
 62
     0
 48
0.5
100
AcDbLine
 10
144.4463831113236
 20
1249.409847990048
 30
0.0
 11
144.4463831113236
 21
1243.409847990048
 31
0.0
  0
LINE
  5
A53B
330
1F
100
AcDbEntity
  8
Object
 62
     0
 48
0.5
100
AcDbLine
 10
334.3452167098519
 20
1238.409847990048
 30
0.0
 11
309.4452167098519
 21
1238.409847990048
 31
0.0
  0
LINE
  5
A53C
330
1F
100
AcDbEntity
  8
Object
 62
     0
 48
0.5
100
AcDbLine
 10
309.445216709852
 20
1254.409847990048
 30
0.0
 11
334.3452167098519
 21
1254.409847990048
 31
0.0
  0
LINE
  5
A545
330
1F
100
AcDbEntity
  8
Object
 62
     0
 48
0.5
100
AcDbLine
 10
264.02941497653
 20
1252.409847990048
 30
0.0
 11
269.0294149765299
 21
1252.409847990048
 31
0.0
  0
LINE
  5
A546
330
1F
100
AcDbEntity
  8
Object
 62
     0
 48
0.5
100
AcDbLine
 10
269.0294149765299
 20
1240.409847990048
 30
0.0
 11
264.02941497653
 21
1240.409847990048
 31
0.0
  0
LINE
  5
A54B
330
1F
100
AcDbEntity
  8
Object
 62
     0
 48
0.5
100
AcDbLine
 10
229.4463831113235
 20
1249.409847990048
 30
0.0
 11
239.02941497653
 21
1249.409847990048
 31
0.0
  0
LINE
  5
A54C
330
1F
100
AcDbEntity
  8
Object
 62
     0
 48
0.5
100
AcDbLine
 10
239.02941497653
 20
1243.409847990048
 30
0.0
 11
229.4463831113235
 21
1243.409847990048
 31
0.0
  0
LINE
  5
A54D
330
1F
100
AcDbEntity
  8
Object
 62
     0
 48
0.5
100
AcDbLine
 10
229.4463831113235
 20
1255.909847990048
 30
0.0
 11
229.4463831113235
 21
1236.909847990048
 31
0.0
  0
LINE
  5
A555
330
1F
100
AcDbEntity
  8
Object
 62
     0
 48
0.5
100
AcDbLine
 10
239.0294149765299
 20
1240.909847990048
 30
0.0
 11
239.02941497653
 21
1251.909847990048
 31
0.0
  0
LINE
  5
A556
330
1F
100
AcDbEntity
  8
Object
 62
     0
 48
0.5
100
AcDbLine
 10
264.02941497653
 20
1246.409847990048
 30
0.0
 11
264.02941497653
 21
1240.909847990048
 31
0.0
  0
LINE
  5
A557
330
1F
100
AcDbEntity
  8
Object
 62
     0
 48
0.5
100
AcDbLine
 10
264.02941497653
 20
1240.409847990048
 30
0.0
 11
264.02941497653
 21
1252.409847990048
 31
0.0
  0
LINE
  5
A558
330
1F
100
AcDbEntity
  8
Object
 62
     0
 48
0.5
100
AcDbLine
 10
264.02941497653
 20
1240.909847990048
 30
0.0
 11
239.0294149765299
 21
1240.909847990048
 31
0.0
  0
LINE
  5
A559
330
1F
100
AcDbEntity
  8
Object
 62
     0
 48
0.5
100
AcDbLine
 10
239.02941497653
 20
1251.909847990048
 30
0.0
 11
264.02941497653
 21
1251.909847990048
 31
0.0
  0
LINE
  5
A55A
330
1F
100
AcDbEntity
  8
Object
 62
     0
 48
0.5
100
AcDbLine
 10
239.02941497653
 20
1246.409847990048
 30
0.0
 11
239.02941497653
 21
1243.409847990048
 31
0.0
  0
LINE
  5
A55C
330
1F
100
AcDbEntity
  8
Object
 62
     0
 48
0.5
100
AcDbLine
 10
269.0294149765299
 20
1238.909847990048
 30
0.0
 11
269.0294149765299
 21
1253.909847990048
 31
0.0
  0
LINE
  5
A55D
330
1F
100
AcDbEntity
  8
Object
 62
     0
 48
0.5
100
AcDbLine
 10
274.02941497653
 20
1246.409847990048
 30
0.0
 11
274.02941497653
 21
1238.909847990048
 31
0.0
  0
LINE
  5
A55E
330
1F
100
AcDbEntity
  8
Object
 62
     0
 48
0.5
100
AcDbLine
 10
269.0294149765299
 20
1246.409847990048
 30
0.0
 11
269.0294149765299
 21
1240.409847990048
 31
0.0
  0
LINE
  5
A55F
330
1F
100
AcDbEntity
  8
Object
 62
     0
 48
0.5
100
AcDbLine
 10
274.02941497653
 20
1238.909847990048
 30
0.0
 11
269.0294149765299
 21
1238.909847990048
 31
0.0
  0
LINE
  5
A566
330
1F
100
AcDbEntity
  8
Object
 62
     0
 48
0.5
100
AcDbLine
 10
274.02941497653
 20
1253.909847990048
 30
0.0
 11
274.02941497653
 21
1246.409847990048
 31
0.0
  0
LINE
  5
A567
330
1F
100
AcDbEntity
  8
Object
 62
     0
 48
0.5
100
AcDbLine
 10
269.0294149765299
 20
1249.409847990048
 30
0.0
 11
274.02941497653
 21
1249.409847990048
 31
0.0
  0
LINE
  5
A568
330
1F
100
AcDbEntity
  8
Object
 62
     0
 48
0.5
100
AcDbLine
 10
269.0294149765299
 20
1243.409847990048
 30
0.0
 11
274.02941497653
 21
1243.409847990048
 31
0.0
  0
LINE
  5
A569
330
1F
100
AcDbEntity
  8
Object
 62
     0
 48
0.5
100
AcDbLine
 10
269.0294149765299
 20
1252.409847990048
 30
0.0
 11
269.0294149765299
 21
1246.409847990048
 31
0.0
  0
LINE
  5
A56A
330
1F
100
AcDbEntity
  8
Object
 62
     0
 48
0.5
100
AcDbLine
 10
269.0294149765299
 20
1241.409847990048
 30
0.0
 11
269.0294149765299
 21
1251.409847990048
 31
0.0
  0
LINE
  5
A56B
330
1F
100
AcDbEntity
  8
Object
 62
     0
 48
0.5
100
AcDbLine
 10
269.0294149765299
 20
1253.909847990048
 30
0.0
 11
274.02941497653
 21
1253.909847990048
 31
0.0
  0
LINE
  5
A56E
330
1F
100
AcDbEntity
  8
Object
 62
     0
 48
0.5
100
AcDbLine
 10
298.27941497653
 20
1241.409847990048
 30
0.0
 11
299.02941497653
 21
1242.159847990048
 31
0.0
  0
LINE
  5
A570
330
1F
100
AcDbEntity
  8
Object
 62
     0
 48
0.5
100
AcDbLine
 10
299.02941497653
 20
1246.409847990048
 30
0.0
 11
299.02941497653
 21
1242.159847990048
 31
0.0
  0
LINE
  5
A571
330
1F
100
AcDbEntity
  8
Object
 62
     0
 48
0.5
100
AcDbLine
 10
302.445216709852
 20
1239.409847990048
 30
0.0
 11
302.445216709852
 21
1253.409847990048
 31
0.0
  0
LINE
  5
A572
330
1F
100
AcDbEntity
  8
Object
 62
     0
 48
0.5
100
AcDbLine
 10
309.4452167098519
 20
1239.409847990048
 30
0.0
 11
302.445216709852
 21
1239.409847990048
 31
0.0
  0
LINE
  5
A573
330
1F
100
AcDbEntity
  8
Object
 62
     0
 48
0.5
100
AcDbLine
 10
309.4452167098519
 20
1238.409847990048
 30
0.0
 11
309.4452167098519
 21
1239.409847990048
 31
0.0
  0
LINE
  5
A574
330
1F
100
AcDbEntity
  8
Object
 62
     0
 48
0.5
100
AcDbLine
 10
302.445216709852
 20
1253.409847990048
 30
0.0
 11
309.445216709852
 21
1253.409847990048
 31
0.0
  0
LINE
  5
A575
330
1F
100
AcDbEntity
  8
Object
 62
     0
 48
0.5
100
AcDbLine
 10
309.445216709852
 20
1253.409847990048
 30
0.0
 11
309.445216709852
 21
1254.409847990048
 31
0.0
  0
LINE
  5
A576
330
1F
100
AcDbEntity
  8
Object
 62
     0
 48
0.5
100
AcDbLine
 10
339.9698068415771
 20
1254.141035883425
 30
0.0
 11
339.9698068415771
 21
1238.541035883425
 31
0.0
  0
LINE
  5
A577
330
1F
100
AcDbEntity
  8
Object
 62
     0
 48
0.5
100
AcDbLine
 10
342.4698068415771
 20
1238.541035883425
 30
0.0
 11
342.4698068415771
 21
1246.341035883425
 31
0.0
  0
LINE
  5
A578
330
1F
100
AcDbEntity
  8
Object
 62
     0
 48
0.5
100
AcDbLine
 10
336.945216709852
 20
1254.409847990048
 30
0.0
 11
336.9452167098521
 21
1238.409847990048
 31
0.0
  0
LINE
  5
A579
330
1F
100
AcDbEntity
  8
Object
 62
     0
 48
0.5
100
AcDbLine
 10
335.0452167098519
 20
1237.609847990048
 30
0.0
 11
335.0452167098519
 21
1255.209847990048
 31
0.0
  0
LINE
  5
A57A
330
1F
100
AcDbEntity
  8
Object
 62
     0
 48
0.5
100
AcDbLine
 10
334.445216709852
 20
1246.409847990048
 30
0.0
 11
334.4452167098519
 21
1237.609847990048
 31
0.0
  0
LINE
  5
A57B
330
1F
100
AcDbEntity
  8
Object
 62
     0
 48
0.5
100
AcDbLine
 10
340.169806841577
 20
1238.341035883425
 30
0.0
 11
342.2698068415771
 21
1238.341035883425
 31
0.0
  0
LINE
  5
A57C
330
1F
100
AcDbEntity
  8
Object
 62
     0
 48
0.5
100
AcDbLine
 10
339.9698068415771
 20
1238.541035883425
 30
0.0
 11
340.169806841577
 21
1238.341035883425
 31
0.0
  0
LINE
  5
A57D
330
1F
100
AcDbEntity
  8
Object
 62
     0
 48
0.5
100
AcDbLine
 10
336.9452167098521
 20
1238.409847990048
 30
0.0
 11
335.145216709852
 21
1238.409847990048
 31
0.0
  0
LINE
  5
A57E
330
1F
100
AcDbEntity
  8
Object
 62
     0
 48
0.5
100
AcDbLine
 10
334.5452167098519
 20
1237.509847990048
 30
0.0
 11
334.4452167098519
 21
1237.609847990048
 31
0.0
  0
LINE
  5
A57F
330
1F
100
AcDbEntity
  8
Object
 62
     0
 48
0.5
100
AcDbLine
 10
334.9452167098519
 20
1237.509847990048
 30
0.0
 11
335.0452167098519
 21
1237.609847990048
 31
0.0
  0
LINE
  5
A580
330
1F
100
AcDbEntity
  8
Object
 62
     0
 48
0.5
100
AcDbLine
 10
334.345216709852
 20
1239.909847990048
 30
0.0
 11
334.4452167098519
 21
1239.909847990048
 31
0.0
  0
LINE
  5
A581
330
1F
100
AcDbEntity
  8
Object
 62
     0
 48
0.5
100
AcDbLine
 10
334.5452167098519
 20
1237.509847990048
 30
0.0
 11
334.9452167098519
 21
1237.509847990048
 31
0.0
  0
LINE
  5
A582
330
1F
100
AcDbEntity
  8
Object
 62
     0
 48
0.5
100
AcDbLine
 10
334.345216709852
 20
1239.909847990048
 30
0.0
 11
334.345216709852
 21
1238.409847990048
 31
0.0
  0
LINE
  5
A583
330
1F
100
AcDbEntity
  8
Object
 62
     0
 48
0.5
100
AcDbLine
 10
335.145216709852
 20
1239.909847990048
 30
0.0
 11
335.0452167098519
 21
1239.909847990048
 31
0.0
  0
LINE
  5
A584
330
1F
100
AcDbEntity
  8
Object
 62
     0
 48
0.5
100
AcDbLine
 10
335.145216709852
 20
1238.409847990048
 30
0.0
 11
335.145216709852
 21
1239.909847990048
 31
0.0
  0
LINE
  5
A585
330
1F
100
AcDbEntity
  8
Object
 62
     0
 48
0.5
100
AcDbLine
 10
342.4698068415771
 20
1238.541035883425
 30
0.0
 11
342.2698068415771
 21
1238.341035883425
 31
0.0
  0
LINE
  5
A586
330
1F
100
AcDbEntity
  8
Object
 62
     0
 48
0.5
100
AcDbLine
 10
342.2698068415771
 20
1254.341035883425
 30
0.0
 11
340.169806841577
 21
1254.341035883425
 31
0.0
  0
LINE
  5
A587
330
1F
100
AcDbEntity
  8
Object
 62
     0
 48
0.5
100
AcDbLine
 10
342.4698068415771
 20
1248.412456846156
 30
0.0
 11
339.9698068415771
 21
1246.341035883425
 31
0.0
  0
LINE
  5
A588
330
1F
100
AcDbEntity
  8
Object
 62
     0
 48
0.5
100
AcDbLine
 10
334.445216709852
 20
1255.209847990048
 30
0.0
 11
334.445216709852
 21
1246.409847990048
 31
0.0
  0
LINE
  5
A58D
330
1F
100
AcDbEntity
  8
Object
 62
     0
 48
0.5
100
AcDbLine
 10
340.169806841577
 20
1254.341035883425
 30
0.0
 11
339.9698068415771
 21
1254.141035883425
 31
0.0
  0
LINE
  5
A58E
330
1F
100
AcDbEntity
  8
Object
 62
     0
 48
0.5
100
AcDbLine
 10
334.445216709852
 20
1255.209847990048
 30
0.0
 11
334.5452167098519
 21
1255.309847990048
 31
0.0
  0
LINE
  5
A58F
330
1F
100
AcDbEntity
  8
Object
 62
     0
 48
0.5
100
AcDbLine
 10
334.9452167098519
 20
1255.309847990048
 30
0.0
 11
335.0452167098519
 21
1255.209847990048
 31
0.0
  0
LINE
  5
A590
330
1F
100
AcDbEntity
  8
Object
 62
     0
 48
0.5
100
AcDbLine
 10
334.4452167098519
 20
1252.909847990048
 30
0.0
 11
334.345216709852
 21
1252.909847990048
 31
0.0
  0
LINE
  5
A591
330
1F
100
AcDbEntity
  8
Object
 62
     0
 48
0.5
100
AcDbLine
 10
334.9452167098519
 20
1255.309847990048
 30
0.0
 11
334.5452167098519
 21
1255.309847990048
 31
0.0
  0
LINE
  5
A592
330
1F
100
AcDbEntity
  8
Object
 62
     0
 48
0.5
100
AcDbLine
 10
335.145216709852
 20
1254.409847990048
 30
0.0
 11
336.945216709852
 21
1254.409847990048
 31
0.0
  0
LINE
  5
A593
330
1F
100
AcDbEntity
  8
Object
 62
     0
 48
0.5
100
AcDbLine
 10
334.345216709852
 20
1252.909847990048
 30
0.0
 11
334.3452167098519
 21
1254.409847990048
 31
0.0
  0
LINE
  5
A594
330
1F
100
AcDbEntity
  8
Object
 62
     0
 48
0.5
100
AcDbLine
 10
335.145216709852
 20
1252.909847990048
 30
0.0
 11
335.045216709852
 21
1252.909847990048
 31
0.0
  0
LINE
  5
A595
330
1F
100
AcDbEntity
  8
Object
 62
     0
 48
0.5
100
AcDbLine
 10
335.145216709852
 20
1254.409847990048
 30
0.0
 11
335.145216709852
 21
1252.909847990048
 31
0.0
  0
LINE
  5
A596
330
1F
100
AcDbEntity
  8
Object
 62
     0
 48
0.5
100
AcDbLine
 10
342.4698068415771
 20
1246.341035883425
 30
0.0
 11
342.4698068415771
 21
1254.141035883425
 31
0.0
  0
LINE
  5
A597
330
1F
100
AcDbEntity
  8
Object
 62
     0
 48
0.5
100
AcDbLine
 10
342.2698068415771
 20
1254.341035883425
 30
0.0
 11
342.4698068415771
 21
1254.141035883425
 31
0.0
  0
MTEXT
  5
A61E
330
1F
100
AcDbEntity
  8
0
 62
     0
 48
0.5
100
AcDbMText
 10
225.1429168700064
 20
1241.162163520237
 30
0.0
 40
3.0
 41
43.43939999999999
 71
     1
 72
     5
  1
支柱側
 11
0.0000000000000001
 21
1.0
 31
0.0
 73
     1
 44
1.0
  0
LWPOLYLINE
  5
A67E
330
1F
100
AcDbEntity
  8
0
 48
0.3
100
AcDbPolyline
 90
        2
 70
     0
 43
0.0
 10
280.3946103537637
 20
1241.423796011043
 10
281.0397668735087
 20
1242.68998697439
  0
LINE
  5
A67F
330
1F
100
AcDbEntity
  8
0
 48
0.3
100
AcDbLine
 10
280.6523476778302
 20
1250.08238560258
 30
0.0
 11
281.0397668735087
 21
1242.68998697439
 31
0.0
  0
LWPOLYLINE
  5
A689
330
1F
100
AcDbEntity
  8
0
 48
0.3
100
AcDbPolyline
 90
        2
 70
     0
 43
0.0
 10
277.3946103537637
 20
1241.423796011043
 10
278.0397668735087
 20
1242.68998697439
  0
LWPOLYLINE
  5
A68A
330
1F
100
AcDbEntity
  8
0
 48
0.3
100
AcDbPolyline
 90
        2
 70
     0
 43
0.0
 10
274.3946103537637
 20
1241.423796011043
 10
275.0397668735087
 20
1242.68998697439
  0
LINE
  5
A693
330
1F
100
AcDbEntity
  8
0
 48
0.3
100
AcDbLine
 10
277.6547607086601
 20
1250.003900395242
 30
0.0
 11
278.0421799043385
 21
1242.611501767052
 31
0.0
  0
LINE
  5
A694
330
1F
100
AcDbEntity
  8
0
 48
0.3
100
AcDbLine
 10
279.1581581893177
 20
1250.122272183956
 30
0.0
 11
279.5249384875536
 21
1242.540615701876
 31
0.0
  0
LINE
  5
A695
330
1F
100
AcDbEntity
  8
0
 48
0.3
100
AcDbLine
 10
279.8404798848993
 20
1251.270091358589
 30
0.0
 11
280.3537723676308
 21
1241.423796011043
 31
0.0
  0
LINE
  5
A696
330
1F
100
AcDbEntity
  8
0
 48
0.3
100
AcDbLine
 10
278.3396715825031
 20
1251.270091358589
 30
0.0
 11
278.8540476972694
 21
1241.423796011043
 31
0.0
  0
LINE
  5
A697
330
1F
100
AcDbEntity
  8
0
 48
0.3
100
AcDbLine
 10
274.6547607086601
 20
1250.003900395242
 30
0.0
 11
275.0421799043385
 21
1242.611501767052
 31
0.0
  0
LINE
  5
A698
330
1F
100
AcDbEntity
  8
0
 48
0.3
100
AcDbLine
 10
276.1581581893177
 20
1250.122272183956
 30
0.0
 11
276.5249384875536
 21
1242.540615701876
 31
0.0
  0
LINE
  5
A699
330
1F
100
AcDbEntity
  8
0
 48
0.3
100
AcDbLine
 10
276.8404798848993
 20
1251.270091358589
 30
0.0
 11
277.3537723676308
 21
1241.423796011043
 31
0.0
  0
LINE
  5
A69A
330
1F
100
AcDbEntity
  8
0
 48
0.3
100
AcDbLine
 10
275.3396715825031
 20
1251.270091358589
 30
0.0
 11
275.8540476972695
 21
1241.423796011043
 31
0.0
  0
LINE
  5
A69D
330
1F
100
AcDbEntity
  8
0
 48
0.3
100
AcDbLine
 10
274.02941497653
 20
1247.64582103261
 30
0.0
 11
274.3537723676308
 21
1241.423796011043
 31
0.0
  0
LINE
  5
A6AD
330
1F
100
AcDbEntity
  8
0
 48
0.3
100
AcDbLine
 10
280.3129343814979
 20
1241.423796011043
 30
0.0
 11
280.3946103537637
 21
1241.423796011043
 31
0.0
  0
LINE
  5
A6AE
330
1F
100
AcDbEntity
  8
0
 48
0.3
100
AcDbLine
 10
278.8134850407752
 20
1241.423796011043
 30
0.0
 11
278.8946103537637
 21
1241.423796011043
 31
0.0
  0
LWPOLYLINE
  5
A6AF
330
1F
100
AcDbEntity
  8
0
 48
0.3
100
AcDbPolyline
 90
        2
 70
     0
 43
0.0
 10
278.0421799043385
 20
1242.611501767052
 10
278.8134850407753
 20
1241.423796011043
  0
LINE
  5
A6B0
330
1F
100
AcDbEntity
  8
0
 48
0.3
100
AcDbLine
 10
277.3129343814979
 20
1241.423796011043
 30
0.0
 11
277.3946103537637
 21
1241.423796011043
 31
0.0
  0
LINE
  5
A6B1
330
1F
100
AcDbEntity
  8
0
 48
0.3
100
AcDbLine
 10
275.8134850407752
 20
1241.423796011043
 30
0.0
 11
275.8946103537637
 21
1241.423796011043
 31
0.0
  0
LWPOLYLINE
  5
A6B2
330
1F
100
AcDbEntity
  8
0
 48
0.3
100
AcDbPolyline
 90
        4
 70
     0
 43
0.0
 10
275.8946103537637
 20
1241.423796011043
 10
276.4358378351348
 20
1242.48601475185
 42
-0.5755139880968628
 10
276.6085039996017
 20
1242.495541153137
 10
277.3129343814979
 20
1241.423796011043
  0
LWPOLYLINE
  5
A6B3
330
1F
100
AcDbEntity
  8
0
 48
0.3
100
AcDbPolyline
 90
        2
 70
     0
 43
0.0
 10
275.0421799043385
 20
1242.611501767052
 10
275.8134850407753
 20
1241.423796011043
  0
LWPOLYLINE
  5
A6B4
330
1F
100
AcDbEntity
  8
0
 48
0.3
100
AcDbPolyline
 90
        4
 70
     0
 43
0.0
 10
278.8946103537637
 20
1241.423796011043
 10
279.4358378351347
 20
1242.48601475185
 42
-0.5755139880968628
 10
279.6085039996017
 20
1242.495541153137
 10
280.3129343814979
 20
1241.423796011043
  0
LWPOLYLINE
  5
A6B5
330
1F
100
AcDbEntity
  8
0
 48
0.3
100
AcDbPolyline
 90
        2
 70
     0
 43
0.0
 10
274.02941497653
 20
1241.855152398804
 10
274.312934381498
 20
1241.423796011043
  0
LINE
  5
A6B7
330
1F
100
AcDbEntity
  8
0
 48
0.3
100
AcDbLine
 10
274.312934381498
 20
1241.423796011043
 30
0.0
 11
274.3946103537637
 21
1241.423796011043
 31
0.0
  0
LWPOLYLINE
  5
A6CA
330
1F
100
AcDbEntity
  8
0
 48
0.3
100
AcDbPolyline
 90
        4
 70
     0
 43
0.0
 10
279.799917228405
 20
1251.270091358589
 10
279.2428450655232
 20
1250.176775679393
 42
-0.5828351435596054
 10
279.0689946414634
 20
1250.169094825384
 10
278.3794259366011
 20
1251.270091358589
  0
LWPOLYLINE
  5
A6CB
330
1F
100
AcDbEntity
  8
0
 48
0.3
100
AcDbPolyline
 90
        2
 70
     0
 43
0.0
 10
278.299917228405
 20
1251.270091358589
 10
277.6626995748089
 20
1250.019481297348
  0
LWPOLYLINE
  5
A6CC
330
1F
100
AcDbEntity
  8
0
 48
0.3
100
AcDbPolyline
 90
        2
 70
     0
 43
0.0
 10
275.299917228405
 20
1251.270091358589
 10
274.6626995748089
 20
1250.019481297348
  0
LWPOLYLINE
  5
A6CD
330
1F
100
AcDbEntity
  8
0
 48
0.3
100
AcDbPolyline
 90
        2
 70
     0
 43
0.0
 10
277.6523476778302
 20
1250.08238560258
 10
276.8810425413935
 20
1251.270091358589
  0
LWPOLYLINE
  5
A6CE
330
1F
100
AcDbEntity
  8
0
 48
0.3
100
AcDbPolyline
 90
        4
 70
     0
 43
0.0
 10
276.7999172284051
 20
1251.270091358589
 10
276.2428450655232
 20
1250.176775679393
 42
-0.5828351435596054
 10
276.0689946414634
 20
1250.169094825384
 10
275.3794259366011
 20
1251.270091358589
  0
LINE
  5
A6CF
330
1F
100
AcDbEntity
  8
0
 48
0.3
100
AcDbLine
 10
278.299917228405
 20
1251.270091358589
 30
0.0
 11
278.3794259366011
 21
1251.270091358589
 31
0.0
  0
LINE
  5
A6D0
330
1F
100
AcDbEntity
  8
0
 48
0.3
100
AcDbLine
 10
276.7999172284051
 20
1251.270091358589
 30
0.0
 11
276.8810425413935
 21
1251.270091358589
 31
0.0
  0
LINE
  5
A6D1
330
1F
100
AcDbEntity
  8
0
 48
0.3
100
AcDbLine
 10
275.299917228405
 20
1251.270091358589
 30
0.0
 11
275.3794259366011
 21
1251.270091358589
 31
0.0
  0
LINE
  5
A6D2
330
1F
100
AcDbEntity
  8
0
 48
0.3
100
AcDbLine
 10
279.799917228405
 20
1251.270091358589
 30
0.0
 11
279.8810425413935
 21
1251.270091358589
 31
0.0
  0
LWPOLYLINE
  5
A6D3
330
1F
100
AcDbEntity
  8
0
 48
0.3
100
AcDbPolyline
 90
        2
 70
     0
 43
0.0
 10
280.6523476778302
 20
1250.08238560258
 10
279.8810425413935
 20
1251.270091358589
  0
LWPOLYLINE
  5
A6D5
330
1F
100
AcDbEntity
  8
0
 48
0.3
100
AcDbPolyline
 90
        2
 70
     0
 43
0.0
 10
274.6523476778302
 20
1250.08238560258
 10
274.02941497653
 20
1251.041617844126
  0
LINE
  5
A6D6
330
1F
100
AcDbEntity
  8
0
 48
0.3
100
AcDbLine
 10
277.6523476778302
 20
1250.08238560258
 30
0.0
 11
278.0397668735087
 21
1242.68998697439
 31
0.0
  0
LINE
  5
A6D7
330
1F
100
AcDbEntity
  8
0
 48
0.3
100
AcDbLine
 10
274.6523476778302
 20
1250.08238560258
 30
0.0
 11
275.0397668735087
 21
1242.68998697439
 31
0.0
  0
LWPOLYLINE
  5
A6D8
330
1F
100
AcDbEntity
  8
0
 48
0.3
100
AcDbPolyline
 90
        4
 70
     0
 43
0.0
 10
297.7895653314263
 20
1251.332995663821
 10
297.2324931685445
 20
1250.239679984624
 42
-0.5828351435596054
 10
297.0586427444847
 20
1250.231999130616
 10
296.3690740396224
 20
1251.332995663821
  0
LWPOLYLINE
  5
A6D9
330
1F
100
AcDbEntity
  8
0
 48
0.3
100
AcDbPolyline
 90
        2
 70
     0
 43
0.0
 10
296.0318280073598
 20
1242.674406072284
 10
296.8031331437966
 20
1241.486700316275
  0
LINE
  5
A6DA
330
1F
100
AcDbEntity
  8
0
 48
0.3
100
AcDbLine
 10
296.3293196855244
 20
1251.332995663821
 30
0.0
 11
296.8436958002907
 21
1241.486700316275
 31
0.0
  0
LWPOLYLINE
  5
A6DB
330
1F
100
AcDbEntity
  8
0
 48
0.3
100
AcDbPolyline
 90
        4
 70
     0
 43
0.0
 10
285.7895653314264
 20
1251.332995663821
 10
285.2324931685445
 20
1250.239679984624
 42
-0.5828351435596054
 10
285.0586427444847
 20
1250.231999130616
 10
284.3690740396224
 20
1251.332995663821
  0
LWPOLYLINE
  5
A6DC
330
1F
100
AcDbEntity
  8
0
 48
0.3
100
AcDbPolyline
 90
        4
 70
     0
 43
0.0
 10
284.884258456785
 20
1241.486700316275
 10
285.4254859381561
 20
1242.548919057082
 42
-0.5755139880968628
 10
285.598152102623
 20
1242.558445458368
 10
286.3025824845193
 20
1241.486700316275
  0
LINE
  5
A6DD
330
1F
100
AcDbEntity
  8
0
 48
0.3
100
AcDbLine
 10
283.6419957808515
 20
1250.145289907812
 30
0.0
 11
284.02941497653
 21
1242.752891279622
 31
0.0
  0
LINE
  5
A6DE
330
1F
100
AcDbEntity
  8
0
 48
0.3
100
AcDbLine
 10
282.7895653314263
 20
1251.332995663821
 30
0.0
 11
282.8706906444148
 21
1251.332995663821
 31
0.0
  0
LINE
  5
A6DF
330
1F
100
AcDbEntity
  8
0
 48
0.3
100
AcDbLine
 10
284.2895653314263
 20
1251.332995663821
 30
0.0
 11
284.3690740396224
 21
1251.332995663821
 31
0.0
  0
LWPOLYLINE
  5
A6E0
330
1F
100
AcDbEntity
  8
0
 48
0.3
100
AcDbPolyline
 90
        2
 70
     0
 43
0.0
 10
283.6419957808515
 20
1250.145289907812
 10
282.8706906444148
 20
1251.332995663821
  0
LWPOLYLINE
  5
A6E1
330
1F
100
AcDbEntity
  8
0
 48
0.3
100
AcDbPolyline
 90
        2
 70
     0
 43
0.0
 10
284.2895653314263
 20
1251.332995663821
 10
283.6523476778302
 20
1250.08238560258
  0
LINE
  5
A6E2
330
1F
100
AcDbEntity
  8
0
 48
0.3
100
AcDbLine
 10
283.3025824845193
 20
1241.486700316275
 30
0.0
 11
283.384258456785
 21
1241.486700316275
 31
0.0
  0
LWPOLYLINE
  5
A6E3
330
1F
100
AcDbEntity
  8
0
 48
0.3
100
AcDbPolyline
 90
        2
 70
     0
 43
0.0
 10
284.0318280073598
 20
1242.674406072284
 10
284.8031331437966
 20
1241.486700316275
  0
LINE
  5
A6E4
330
1F
100
AcDbEntity
  8
0
 48
0.3
100
AcDbLine
 10
284.8031331437965
 20
1241.486700316275
 30
0.0
 11
284.884258456785
 21
1241.486700316275
 31
0.0
  0
LINE
  5
A6E5
330
1F
100
AcDbEntity
  8
0
 48
0.3
100
AcDbLine
 10
282.8301279879206
 20
1251.332995663821
 30
0.0
 11
283.3434204706522
 21
1241.486700316275
 31
0.0
  0
LINE
  5
A6E6
330
1F
100
AcDbEntity
  8
0
 48
0.3
100
AcDbLine
 10
284.3293196855244
 20
1251.332995663821
 30
0.0
 11
284.8436958002908
 21
1241.486700316275
 31
0.0
  0
LINE
  5
A6E7
330
1F
100
AcDbEntity
  8
0
 48
0.3
100
AcDbLine
 10
285.147806292339
 20
1250.185176489188
 30
0.0
 11
285.5145865905749
 21
1242.603520007108
 31
0.0
  0
LINE
  5
A6E8
330
1F
100
AcDbEntity
  8
0
 48
0.3
100
AcDbLine
 10
283.6444088116814
 20
1250.066804700474
 30
0.0
 11
284.0318280073598
 21
1242.674406072284
 31
0.0
  0
LWPOLYLINE
  5
A6E9
330
1F
100
AcDbEntity
  8
0
 48
0.3
100
AcDbPolyline
 90
        2
 70
     0
 43
0.0
 10
283.384258456785
 20
1241.486700316275
 10
284.02941497653
 20
1242.752891279622
  0
LWPOLYLINE
  5
A6EA
330
1F
100
AcDbEntity
  8
0
 48
0.3
100
AcDbPolyline
 90
        2
 70
     0
 43
0.0
 10
281.2895653314263
 20
1251.332995663821
 10
280.6523476778302
 20
1250.08238560258
  0
LINE
  5
A6EB
330
1F
100
AcDbEntity
  8
0
 48
0.3
100
AcDbLine
 10
281.2895653314263
 20
1251.332995663821
 30
0.0
 11
281.3690740396224
 21
1251.332995663821
 31
0.0
  0
LWPOLYLINE
  5
A6EC
330
1F
100
AcDbEntity
  8
0
 48
0.3
100
AcDbPolyline
 90
        2
 70
     0
 43
0.0
 10
281.0318280073598
 20
1242.674406072284
 10
281.8031331437966
 20
1241.486700316275
  0
LINE
  5
A6ED
330
1F
100
AcDbEntity
  8
0
 48
0.3
100
AcDbLine
 10
281.8031331437966
 20
1241.486700316275
 30
0.0
 11
281.884258456785
 21
1241.486700316275
 31
0.0
  0
LINE
  5
A6EF
330
1F
100
AcDbEntity
  8
0
 48
0.3
100
AcDbLine
 10
281.3293196855244
 20
1251.332995663821
 30
0.0
 11
281.8436958002907
 21
1241.486700316275
 31
0.0
  0
LINE
  5
A6F0
330
1F
100
AcDbEntity
  8
0
 48
0.3
100
AcDbLine
 10
282.147806292339
 20
1250.185176489188
 30
0.0
 11
282.5145865905749
 21
1242.603520007108
 31
0.0
  0
LWPOLYLINE
  5
A6F1
330
1F
100
AcDbEntity
  8
0
 48
0.3
100
AcDbPolyline
 90
        4
 70
     0
 43
0.0
 10
281.884258456785
 20
1241.486700316275
 10
282.425485938156
 20
1242.548919057082
 42
-0.5755139880968628
 10
282.598152102623
 20
1242.558445458368
 10
283.3025824845193
 20
1241.486700316275
  0
LWPOLYLINE
  5
A6F2
330
1F
100
AcDbEntity
  8
0
 48
0.3
100
AcDbPolyline
 90
        4
 70
     0
 43
0.0
 10
282.7895653314263
 20
1251.332995663821
 10
282.2324931685445
 20
1250.239679984624
 42
-0.5828351435596054
 10
282.0586427444847
 20
1250.231999130616
 10
281.3690740396224
 20
1251.332995663821
  0
LINE
  5
A6F3
330
1F
100
AcDbEntity
  8
0
 48
0.3
100
AcDbLine
 10
292.6419957808515
 20
1250.145289907812
 30
0.0
 11
293.02941497653
 21
1242.752891279622
 31
0.0
  0
LINE
  5
A6F4
330
1F
100
AcDbEntity
  8
0
 48
0.3
100
AcDbLine
 10
295.6419957808515
 20
1250.145289907812
 30
0.0
 11
296.0294149765299
 21
1242.752891279622
 31
0.0
  0
LWPOLYLINE
  5
A6F5
330
1F
100
AcDbEntity
  8
0
 48
0.3
100
AcDbPolyline
 90
        2
 70
     0
 43
0.0
 10
292.6419957808515
 20
1250.145289907812
 10
291.8706906444148
 20
1251.332995663821
  0
LINE
  5
A6F6
330
1F
100
AcDbEntity
  8
0
 48
0.3
100
AcDbLine
 10
291.7895653314264
 20
1251.332995663821
 30
0.0
 11
291.8706906444148
 21
1251.332995663821
 31
0.0
  0
LINE
  5
A6F7
330
1F
100
AcDbEntity
  8
0
 48
0.3
100
AcDbLine
 10
293.2895653314263
 20
1251.332995663821
 30
0.0
 11
293.3690740396224
 21
1251.332995663821
 31
0.0
  0
LINE
  5
A6F8
330
1F
100
AcDbEntity
  8
0
 48
0.3
100
AcDbLine
 10
294.7895653314263
 20
1251.332995663821
 30
0.0
 11
294.8706906444148
 21
1251.332995663821
 31
0.0
  0
LINE
  5
A6F9
330
1F
100
AcDbEntity
  8
0
 48
0.3
100
AcDbLine
 10
296.2895653314264
 20
1251.332995663821
 30
0.0
 11
296.3690740396224
 21
1251.332995663821
 31
0.0
  0
LWPOLYLINE
  5
A6FA
330
1F
100
AcDbEntity
  8
0
 48
0.3
100
AcDbPolyline
 90
        4
 70
     0
 43
0.0
 10
294.7895653314263
 20
1251.332995663821
 10
294.2324931685445
 20
1250.239679984624
 42
-0.5828351435596054
 10
294.0586427444847
 20
1250.231999130616
 10
293.3690740396224
 20
1251.332995663821
  0
LWPOLYLINE
  5
A6FB
330
1F
100
AcDbEntity
  8
0
 48
0.3
100
AcDbPolyline
 90
        2
 70
     0
 43
0.0
 10
295.6419957808515
 20
1250.145289907812
 10
294.8706906444148
 20
1251.332995663821
  0
LWPOLYLINE
  5
A6FC
330
1F
100
AcDbEntity
  8
0
 48
0.3
100
AcDbPolyline
 90
        2
 70
     0
 43
0.0
 10
293.2895653314263
 20
1251.332995663821
 10
292.6523476778302
 20
1250.08238560258
  0
LWPOLYLINE
  5
A6FD
330
1F
100
AcDbEntity
  8
0
 48
0.3
100
AcDbPolyline
 90
        2
 70
     0
 43
0.0
 10
296.2895653314264
 20
1251.332995663821
 10
295.6523476778302
 20
1250.08238560258
  0
LINE
  5
A6FE
330
1F
100
AcDbEntity
  8
0
 48
0.3
100
AcDbLine
 10
286.6419957808515
 20
1250.145289907812
 30
0.0
 11
287.02941497653
 21
1242.752891279622
 31
0.0
  0
LINE
  5
A6FF
330
1F
100
AcDbEntity
  8
0
 48
0.3
100
AcDbLine
 10
289.6419957808515
 20
1250.145289907812
 30
0.0
 11
290.02941497653
 21
1242.752891279622
 31
0.0
  0
LWPOLYLINE
  5
A700
330
1F
100
AcDbEntity
  8
0
 48
0.3
100
AcDbPolyline
 90
        2
 70
     0
 43
0.0
 10
286.6419957808515
 20
1250.145289907812
 10
285.8706906444148
 20
1251.332995663821
  0
LINE
  5
A701
330
1F
100
AcDbEntity
  8
0
 48
0.3
100
AcDbLine
 10
285.7895653314264
 20
1251.332995663821
 30
0.0
 11
285.8706906444148
 21
1251.332995663821
 31
0.0
  0
LINE
  5
A702
330
1F
100
AcDbEntity
  8
0
 48
0.3
100
AcDbLine
 10
287.2895653314263
 20
1251.332995663821
 30
0.0
 11
287.3690740396224
 21
1251.332995663821
 31
0.0
  0
LINE
  5
A703
330
1F
100
AcDbEntity
  8
0
 48
0.3
100
AcDbLine
 10
288.7895653314263
 20
1251.332995663821
 30
0.0
 11
288.8706906444148
 21
1251.332995663821
 31
0.0
  0
LINE
  5
A704
330
1F
100
AcDbEntity
  8
0
 48
0.3
100
AcDbLine
 10
290.2895653314264
 20
1251.332995663821
 30
0.0
 11
290.3690740396224
 21
1251.332995663821
 31
0.0
  0
LWPOLYLINE
  5
A705
330
1F
100
AcDbEntity
  8
0
 48
0.3
100
AcDbPolyline
 90
        4
 70
     0
 43
0.0
 10
288.7895653314263
 20
1251.332995663821
 10
288.2324931685445
 20
1250.239679984624
 42
-0.5828351435596054
 10
288.0586427444847
 20
1250.231999130616
 10
287.3690740396224
 20
1251.332995663821
  0
LWPOLYLINE
  5
A706
330
1F
100
AcDbEntity
  8
0
 48
0.3
100
AcDbPolyline
 90
        2
 70
     0
 43
0.0
 10
289.6419957808515
 20
1250.145289907812
 10
288.8706906444148
 20
1251.332995663821
  0
LWPOLYLINE
  5
A707
330
1F
100
AcDbEntity
  8
0
 48
0.3
100
AcDbPolyline
 90
        2
 70
     0
 43
0.0
 10
287.2895653314263
 20
1251.332995663821
 10
286.6523476778302
 20
1250.08238560258
  0
LWPOLYLINE
  5
A708
330
1F
100
AcDbEntity
  8
0
 48
0.3
100
AcDbPolyline
 90
        2
 70
     0
 43
0.0
 10
290.2895653314264
 20
1251.332995663821
 10
289.6523476778302
 20
1250.08238560258
  0
LWPOLYLINE
  5
A709
330
1F
100
AcDbEntity
  8
0
 48
0.3
100
AcDbPolyline
 90
        4
 70
     0
 43
0.0
 10
291.7895653314264
 20
1251.332995663821
 10
291.2324931685445
 20
1250.239679984624
 42
-0.5828351435596054
 10
291.0586427444847
 20
1250.231999130616
 10
290.3690740396224
 20
1251.332995663821
  0
LINE
  5
A70A
330
1F
100
AcDbEntity
  8
0
 48
0.3
100
AcDbLine
 10
292.3025824845193
 20
1241.486700316275
 30
0.0
 11
292.384258456785
 21
1241.486700316275
 31
0.0
  0
LINE
  5
A70B
330
1F
100
AcDbEntity
  8
0
 48
0.3
100
AcDbLine
 10
290.8031331437965
 20
1241.486700316275
 30
0.0
 11
290.884258456785
 21
1241.486700316275
 31
0.0
  0
LWPOLYLINE
  5
A70C
330
1F
100
AcDbEntity
  8
0
 48
0.3
100
AcDbPolyline
 90
        4
 70
     0
 43
0.0
 10
290.884258456785
 20
1241.486700316275
 10
291.4254859381561
 20
1242.548919057082
 42
-0.5755139880968628
 10
291.598152102623
 20
1242.558445458368
 10
292.3025824845193
 20
1241.486700316275
  0
LWPOLYLINE
  5
A70D
330
1F
100
AcDbEntity
  8
0
 48
0.3
100
AcDbPolyline
 90
        2
 70
     0
 43
0.0
 10
293.0318280073598
 20
1242.674406072284
 10
293.8031331437966
 20
1241.486700316275
  0
LWPOLYLINE
  5
A70E
330
1F
100
AcDbEntity
  8
0
 48
0.3
100
AcDbPolyline
 90
        4
 70
     0
 43
0.0
 10
293.884258456785
 20
1241.486700316275
 10
294.425485938156
 20
1242.548919057082
 42
-0.5755139880968628
 10
294.598152102623
 20
1242.558445458368
 10
295.3025824845192
 20
1241.486700316275
  0
LINE
  5
A70F
330
1F
100
AcDbEntity
  8
0
 48
0.3
100
AcDbLine
 10
293.8031331437965
 20
1241.486700316275
 30
0.0
 11
293.884258456785
 21
1241.486700316275
 31
0.0
  0
LINE
  5
A710
330
1F
100
AcDbEntity
  8
0
 48
0.3
100
AcDbLine
 10
295.3025824845192
 20
1241.486700316275
 30
0.0
 11
295.384258456785
 21
1241.486700316275
 31
0.0
  0
LINE
  5
A711
330
1F
100
AcDbEntity
  8
0
 48
0.3
100
AcDbLine
 10
286.3025824845193
 20
1241.486700316275
 30
0.0
 11
286.384258456785
 21
1241.486700316275
 31
0.0
  0
LWPOLYLINE
  5
A712
330
1F
100
AcDbEntity
  8
0
 48
0.3
100
AcDbPolyline
 90
        2
 70
     0
 43
0.0
 10
287.0318280073598
 20
1242.674406072284
 10
287.8031331437966
 20
1241.486700316275
  0
LWPOLYLINE
  5
A713
330
1F
100
AcDbEntity
  8
0
 48
0.3
100
AcDbPolyline
 90
        4
 70
     0
 43
0.0
 10
287.884258456785
 20
1241.486700316275
 10
288.425485938156
 20
1242.548919057082
 42
-0.5755139880968628
 10
288.598152102623
 20
1242.558445458368
 10
289.3025824845192
 20
1241.486700316275
  0
LINE
  5
A714
330
1F
100
AcDbEntity
  8
0
 48
0.3
100
AcDbLine
 10
287.8031331437965
 20
1241.486700316275
 30
0.0
 11
287.884258456785
 21
1241.486700316275
 31
0.0
  0
LINE
  5
A715
330
1F
100
AcDbEntity
  8
0
 48
0.3
100
AcDbLine
 10
289.3025824845192
 20
1241.486700316275
 30
0.0
 11
289.384258456785
 21
1241.486700316275
 31
0.0
  0
LWPOLYLINE
  5
A716
330
1F
100
AcDbEntity
  8
0
 48
0.3
100
AcDbPolyline
 90
        2
 70
     0
 43
0.0
 10
290.0318280073598
 20
1242.674406072284
 10
290.8031331437966
 20
1241.486700316275
  0
LINE
  5
A717
330
1F
100
AcDbEntity
  8
0
 48
0.3
100
AcDbLine
 10
287.3293196855243
 20
1251.332995663821
 30
0.0
 11
287.8436958002907
 21
1241.486700316275
 31
0.0
  0
LINE
  5
A718
330
1F
100
AcDbEntity
  8
0
 48
0.3
100
AcDbLine
 10
288.8301279879206
 20
1251.332995663821
 30
0.0
 11
289.3434204706522
 21
1241.486700316275
 31
0.0
  0
LINE
  5
A719
330
1F
100
AcDbEntity
  8
0
 48
0.3
100
AcDbLine
 10
288.147806292339
 20
1250.185176489188
 30
0.0
 11
288.5145865905749
 21
1242.603520007108
 31
0.0
  0
LINE
  5
A71A
330
1F
100
AcDbEntity
  8
0
 48
0.3
100
AcDbLine
 10
286.6444088116814
 20
1250.066804700474
 30
0.0
 11
287.0318280073598
 21
1242.674406072284
 31
0.0
  0
LINE
  5
A71B
330
1F
100
AcDbEntity
  8
0
 48
0.3
100
AcDbLine
 10
290.3293196855244
 20
1251.332995663821
 30
0.0
 11
290.8436958002908
 21
1241.486700316275
 31
0.0
  0
LINE
  5
A71C
330
1F
100
AcDbEntity
  8
0
 48
0.3
100
AcDbLine
 10
291.8301279879205
 20
1251.332995663821
 30
0.0
 11
292.3434204706521
 21
1241.486700316275
 31
0.0
  0
LINE
  5
A71D
330
1F
100
AcDbEntity
  8
0
 48
0.3
100
AcDbLine
 10
291.147806292339
 20
1250.185176489188
 30
0.0
 11
291.5145865905749
 21
1242.603520007108
 31
0.0
  0
LINE
  5
A71E
330
1F
100
AcDbEntity
  8
0
 48
0.3
100
AcDbLine
 10
289.6444088116814
 20
1250.066804700474
 30
0.0
 11
290.0318280073598
 21
1242.674406072284
 31
0.0
  0
LINE
  5
A71F
330
1F
100
AcDbEntity
  8
0
 48
0.3
100
AcDbLine
 10
293.3293196855244
 20
1251.332995663821
 30
0.0
 11
293.8436958002908
 21
1241.486700316275
 31
0.0
  0
LINE
  5
A720
330
1F
100
AcDbEntity
  8
0
 48
0.3
100
AcDbLine
 10
294.8301279879206
 20
1251.332995663821
 30
0.0
 11
295.3434204706521
 21
1241.486700316275
 31
0.0
  0
LINE
  5
A721
330
1F
100
AcDbEntity
  8
0
 48
0.3
100
AcDbLine
 10
294.147806292339
 20
1250.185176489188
 30
0.0
 11
294.5145865905749
 21
1242.603520007108
 31
0.0
  0
LINE
  5
A722
330
1F
100
AcDbEntity
  8
0
 48
0.3
100
AcDbLine
 10
292.6444088116814
 20
1250.066804700474
 30
0.0
 11
293.0318280073598
 21
1242.674406072284
 31
0.0
  0
LINE
  5
A723
330
1F
100
AcDbEntity
  8
0
 48
0.3
100
AcDbLine
 10
295.6444088116814
 20
1250.066804700474
 30
0.0
 11
296.0318280073598
 21
1242.674406072284
 31
0.0
  0
LINE
  5
A724
330
1F
100
AcDbEntity
  8
0
 48
0.3
100
AcDbLine
 10
285.8301279879206
 20
1251.332995663821
 30
0.0
 11
286.3434204706521
 21
1241.486700316275
 31
0.0
  0
LWPOLYLINE
  5
A725
330
1F
100
AcDbEntity
  8
0
 48
0.3
100
AcDbPolyline
 90
        2
 70
     0
 43
0.0
 10
286.384258456785
 20
1241.486700316275
 10
287.02941497653
 20
1242.752891279622
  0
LWPOLYLINE
  5
A726
330
1F
100
AcDbEntity
  8
0
 48
0.3
100
AcDbPolyline
 90
        2
 70
     0
 43
0.0
 10
289.384258456785
 20
1241.486700316275
 10
290.02941497653
 20
1242.752891279622
  0
LWPOLYLINE
  5
A727
330
1F
100
AcDbEntity
  8
0
 48
0.3
100
AcDbPolyline
 90
        2
 70
     0
 43
0.0
 10
292.384258456785
 20
1241.486700316275
 10
293.02941497653
 20
1242.752891279622
  0
LWPOLYLINE
  5
A728
330
1F
100
AcDbEntity
  8
0
 48
0.3
100
AcDbPolyline
 90
        2
 70
     0
 43
0.0
 10
295.384258456785
 20
1241.486700316275
 10
296.0294149765299
 20
1242.752891279622
  0
LWPOLYLINE
  5
A729
330
1F
100
AcDbEntity
  8
0
 48
0.3
100
AcDbPolyline
 90
        2
 70
     0
 43
0.0
 10
298.6419957808515
 20
1250.145289907812
 10
297.8706906444148
 20
1251.332995663821
  0
LINE
  5
A72A
330
1F
100
AcDbEntity
  8
0
 48
0.3
100
AcDbLine
 10
297.7895653314263
 20
1251.332995663821
 30
0.0
 11
297.8706906444148
 21
1251.332995663821
 31
0.0
  0
LWPOLYLINE
  5
A72B
330
1F
100
AcDbEntity
  8
0
 48
0.3
100
AcDbPolyline
 90
        4
 70
     0
 43
0.0
 10
296.884258456785
 20
1241.486700316275
 10
297.4254859381561
 20
1242.548919057082
 42
-0.5755139880968628
 10
297.598152102623
 20
1242.558445458368
 10
298.3025824845192
 20
1241.486700316275
  0
LINE
  5
A72C
330
1F
100
AcDbEntity
  8
0
 48
0.3
100
AcDbLine
 10
296.8031331437965
 20
1241.486700316275
 30
0.0
 11
296.884258456785
 21
1241.486700316275
 31
0.0
  0
LINE
  5
A72D
330
1F
100
AcDbEntity
  8
0
 48
0.3
100
AcDbLine
 10
298.3025824845192
 20
1241.486700316275
 30
0.0
 11
298.384258456785
 21
1241.486700316275
 31
0.0
  0
LINE
  5
A72E
330
1F
100
AcDbEntity
  8
0
 48
0.3
100
AcDbLine
 10
297.8301279879206
 20
1251.332995663821
 30
0.0
 11
298.3434204706521
 21
1241.486700316275
 31
0.0
  0
LINE
  5
A72F
330
1F
100
AcDbEntity
  8
0
 48
0.3
100
AcDbLine
 10
297.147806292339
 20
1250.185176489188
 30
0.0
 11
297.5145865905749
 21
1242.603520007108
 31
0.0
  0
LINE
  5
A730
330
1F
100
AcDbEntity
  8
0
 48
0.3
100
AcDbLine
 10
298.6419957808515
 20
1250.145289907812
 30
0.0
 11
299.02941497653
 21
1242.752891279622
 31
0.0
  0
LWPOLYLINE
  5
A7A2
330
1F
100
AcDbEntity
  8
0
 48
0.3
100
AcDbPolyline
 90
        2
 70
     0
 43
0.0
 10
-11.39412124452731
 20
1250.208194213044
 10
-12.165426380964
 20
1251.395899969053
  0
LWPOLYLINE
  5
A7A3
330
1F
100
AcDbEntity
  8
0
 48
0.3
100
AcDbPolyline
 90
        2
 70
     0
 43
0.0
 10
-11.65185856859378
 20
1241.549604621507
 10
-11.00670204884883
 20
1242.815795584854
  0
LINE
  5
A7A4
330
1F
100
AcDbEntity
  8
0
 48
0.3
100
AcDbLine
 10
-14.39412124452735
 20
1250.208194213044
 30
0.0
 11
-14.00670204884886
 21
1242.815795584854
 31
0.0
  0
LWPOLYLINE
  5
A7A5
330
1F
100
AcDbEntity
  8
0
 48
0.3
100
AcDbPolyline
 90
        2
 70
     0
 43
0.0
 10
-14.39412124452731
 20
1250.208194213044
 10
-15.165426380964
 20
1251.395899969053
  0
LINE
  5
A7A6
330
1F
100
AcDbEntity
  8
0
 48
0.3
100
AcDbLine
 10
-15.24655169395248
 20
1251.395899969053
 30
0.0
 11
-15.16542638096405
 21
1251.395899969053
 31
0.0
  0
LINE
  5
A7A7
330
1F
100
AcDbEntity
  8
0
 48
0.3
100
AcDbLine
 10
-13.74655169395248
 20
1251.395899969053
 30
0.0
 11
-13.66704298575643
 21
1251.395899969053
 31
0.0
  0
LINE
  5
A7A8
330
1F
100
AcDbEntity
  8
0
 48
0.3
100
AcDbLine
 10
-12.24655169395236
 20
1251.395899969053
 30
0.0
 11
-12.16542638096393
 21
1251.395899969053
 31
0.0
  0
LWPOLYLINE
  5
A7A9
330
1F
100
AcDbEntity
  8
0
 48
0.3
100
AcDbPolyline
 90
        4
 70
     0
 43
0.0
 10
-12.24655169395244
 20
1251.395899969053
 10
-12.8036238568343
 20
1250.302584289856
 42
-0.5828351435596054
 10
-12.97747428089407
 20
1250.294903435848
 10
-13.66704298575639
 20
1251.395899969053
  0
LWPOLYLINE
  5
A7AA
330
1F
100
AcDbEntity
  8
0
 48
0.3
100
AcDbPolyline
 90
        2
 70
     0
 43
0.0
 10
-13.74655169395244
 20
1251.395899969053
 10
-14.3837693475486
 20
1250.145289907812
  0
LINE
  5
A7AB
330
1F
100
AcDbEntity
  8
0
 48
0.3
100
AcDbLine
 10
-16.74655169395248
 20
1251.395899969053
 30
0.0
 11
-16.66704298575643
 21
1251.395899969053
 31
0.0
  0
LWPOLYLINE
  5
A7AC
330
1F
100
AcDbEntity
  8
0
 48
0.3
100
AcDbPolyline
 90
        4
 70
     0
 43
0.0
 10
-15.24655169395244
 20
1251.395899969053
 10
-15.8036238568343
 20
1250.302584289856
 42
-0.5828351435596054
 10
-15.97747428089407
 20
1250.294903435848
 10
-16.66704298575639
 20
1251.395899969053
  0
LINE
  5
A7AD
330
1F
100
AcDbEntity
  8
0
 48
0.3
100
AcDbLine
 10
-14.73353454085952
 20
1241.549604621507
 30
0.0
 11
-14.65185856859375
 21
1241.549604621507
 31
0.0
  0
LINE
  5
A7AE
330
1F
100
AcDbEntity
  8
0
 48
0.3
100
AcDbLine
 10
-16.2329838815823
 20
1241.549604621507
 30
0.0
 11
-16.15185856859375
 21
1241.549604621507
 31
0.0
  0
LWPOLYLINE
  5
A7AF
330
1F
100
AcDbEntity
  8
0
 48
0.3
100
AcDbPolyline
 90
        4
 70
     0
 43
0.0
 10
-16.15185856859378
 20
1241.549604621507
 10
-15.61063108722274
 20
1242.611823362314
 42
-0.5755139880968628
 10
-15.43796492275581
 20
1242.6213497636
 10
-14.73353454085955
 20
1241.549604621507
  0
LWPOLYLINE
  5
A7B0
330
1F
100
AcDbEntity
  8
0
 48
0.3
100
AcDbPolyline
 90
        2
 70
     0
 43
0.0
 10
-14.00428901801896
 20
1242.737310377516
 10
-13.23298388158221
 20
1241.549604621507
  0
LWPOLYLINE
  5
A7B1
330
1F
100
AcDbEntity
  8
0
 48
0.3
100
AcDbPolyline
 90
        4
 70
     0
 43
0.0
 10
-13.15185856859378
 20
1241.549604621507
 10
-12.61063108722274
 20
1242.611823362314
 42
-0.5755139880968628
 10
-12.43796492275581
 20
1242.6213497636
 10
-11.73353454085955
 20
1241.549604621507
  0
LINE
  5
A7B2
330
1F
100
AcDbEntity
  8
0
 48
0.3
100
AcDbLine
 10
-13.2329838815823
 20
1241.549604621507
 30
0.0
 11
-13.15185856859375
 21
1241.549604621507
 31
0.0
  0
LINE
  5
A7B3
330
1F
100
AcDbEntity
  8
0
 48
0.3
100
AcDbLine
 10
-11.73353454085952
 20
1241.549604621507
 30
0.0
 11
-11.65185856859375
 21
1241.549604621507
 31
0.0
  0
LWPOLYLINE
  5
A7B4
330
1F
100
AcDbEntity
  8
0
 48
0.3
100
AcDbPolyline
 90
        2
 70
     0
 43
0.0
 10
-17.00428901801896
 20
1242.737310377516
 10
-16.23298388158221
 20
1241.549604621507
  0
LINE
  5
A7B5
330
1F
100
AcDbEntity
  8
0
 48
0.3
100
AcDbLine
 10
-16.70679733985446
 20
1251.395899969053
 30
0.0
 11
-16.19242122508808
 21
1241.549604621507
 31
0.0
  0
LINE
  5
A7B6
330
1F
100
AcDbEntity
  8
0
 48
0.3
100
AcDbLine
 10
-15.20598903745826
 20
1251.395899969053
 30
0.0
 11
-14.69269655472669
 21
1241.549604621507
 31
0.0
  0
LINE
  5
A7B7
330
1F
100
AcDbEntity
  8
0
 48
0.3
100
AcDbLine
 10
-15.88831073303981
 20
1250.24808079442
 30
0.0
 11
-15.52153043480393
 21
1242.66642431234
 31
0.0
  0
LINE
  5
A7B8
330
1F
100
AcDbEntity
  8
0
 48
0.3
100
AcDbLine
 10
-13.70679733985446
 20
1251.395899969053
 30
0.0
 11
-13.19242122508808
 21
1241.549604621507
 31
0.0
  0
LINE
  5
A7B9
330
1F
100
AcDbEntity
  8
0
 48
0.3
100
AcDbLine
 10
-12.20598903745826
 20
1251.395899969053
 30
0.0
 11
-11.69269655472669
 21
1241.549604621507
 31
0.0
  0
LINE
  5
A7BA
330
1F
100
AcDbEntity
  8
0
 48
0.3
100
AcDbLine
 10
-12.88831073303981
 20
1250.24808079442
 30
0.0
 11
-12.52153043480393
 21
1242.66642431234
 31
0.0
  0
LWPOLYLINE
  5
A7BC
330
1F
100
AcDbEntity
  8
0
 48
0.3
100
AcDbPolyline
 90
        2
 70
     0
 43
0.0
 10
-14.65185856859378
 20
1241.549604621507
 10
-14.00670204884883
 20
1242.815795584854
  0
LINE
  5
A7C3
330
1F
100
AcDbEntity
  8
0
 48
0.3
100
AcDbLine
 10
-19.74655169395248
 20
1251.395899969053
 30
0.0
 11
-19.66704298575644
 21
1251.395899969053
 31
0.0
  0
LINE
  5
A7C4
330
1F
100
AcDbEntity
  8
0
 48
0.3
100
AcDbLine
 10
-18.24655169395248
 20
1251.395899969053
 30
0.0
 11
-18.16542638096405
 21
1251.395899969053
 31
0.0
  0
LWPOLYLINE
  5
A7C5
330
1F
100
AcDbEntity
  8
0
 48
0.3
100
AcDbPolyline
 90
        4
 70
     0
 43
0.0
 10
-18.24655169395244
 20
1251.395899969053
 10
-18.8036238568343
 20
1250.302584289856
 42
-0.5828351435596054
 10
-18.97747428089407
 20
1250.294903435848
 10
-19.66704298575639
 20
1251.395899969053
  0
LWPOLYLINE
  5
A7C6
330
1F
100
AcDbEntity
  8
0
 48
0.3
100
AcDbPolyline
 90
        2
 70
     0
 43
0.0
 10
-17.39412124452731
 20
1250.208194213044
 10
-18.165426380964
 20
1251.395899969053
  0
LWPOLYLINE
  5
A7C7
330
1F
100
AcDbEntity
  8
0
 48
0.3
100
AcDbPolyline
 90
        2
 70
     0
 43
0.0
 10
-19.74655169395244
 20
1251.395899969053
 10
-20.195058354032
 20
1250.515656086192
  0
LWPOLYLINE
  5
A7C9
330
1F
100
AcDbEntity
  8
0
 48
0.3
100
AcDbPolyline
 90
        2
 70
     0
 43
0.0
 10
-20.00428901801896
 20
1242.737310377516
 10
-19.23298388158221
 20
1241.549604621507
  0
LWPOLYLINE
  5
A7CA
330
1F
100
AcDbEntity
  8
0
 48
0.3
100
AcDbPolyline
 90
        4
 70
     0
 43
0.0
 10
-19.15185856859378
 20
1241.549604621507
 10
-18.61063108722274
 20
1242.611823362314
 42
-0.5755139880968628
 10
-18.43796492275581
 20
1242.6213497636
 10
-17.73353454085955
 20
1241.549604621507
  0
LINE
  5
A7CB
330
1F
100
AcDbEntity
  8
0
 48
0.3
100
AcDbLine
 10
-19.23298388158229
 20
1241.549604621507
 30
0.0
 11
-19.15185856859375
 21
1241.549604621507
 31
0.0
  0
LINE
  5
A7CC
330
1F
100
AcDbEntity
  8
0
 48
0.3
100
AcDbLine
 10
-17.73353454085952
 20
1241.549604621507
 30
0.0
 11
-17.65185856859375
 21
1241.549604621507
 31
0.0
  0
LINE
  5
A7CD
330
1F
100
AcDbEntity
  8
0
 48
0.3
100
AcDbLine
 10
-19.70679733985446
 20
1251.395899969053
 30
0.0
 11
-19.19242122508808
 21
1241.549604621507
 31
0.0
  0
LINE
  5
A7CE
330
1F
100
AcDbEntity
  8
0
 48
0.3
100
AcDbLine
 10
-18.20598903745826
 20
1251.395899969053
 30
0.0
 11
-17.69269655472669
 21
1241.549604621507
 31
0.0
  0
LINE
  5
A7CF
330
1F
100
AcDbEntity
  8
0
 48
0.3
100
AcDbLine
 10
-18.88831073303981
 20
1250.24808079442
 30
0.0
 11
-18.52153043480393
 21
1242.66642431234
 31
0.0
  0
LINE
  5
A7D0
330
1F
100
AcDbEntity
  8
0
 48
0.3
100
AcDbLine
 10
-20.19505835403197
 20
1246.377406153808
 30
0.0
 11
-20.00428901801899
 21
1242.737310377516
 31
0.0
  0
LWPOLYLINE
  5
A7D2
330
1F
100
AcDbEntity
  8
0
 48
0.3
100
AcDbPolyline
 90
        2
 70
     0
 43
0.0
 10
-20.195058354032
 20
1242.446125521523
 10
-20.00670204884883
 20
1242.815795584854
  0
LINE
  5
A7D3
330
1F
100
AcDbEntity
  8
0
 48
0.3
100
AcDbLine
 10
-17.39412124452735
 20
1250.208194213044
 30
0.0
 11
-17.00670204884886
 21
1242.815795584854
 31
0.0
  0
LWPOLYLINE
  5
A7D4
330
1F
100
AcDbEntity
  8
0
 48
0.3
100
AcDbPolyline
 90
        2
 70
     0
 43
0.0
 10
-16.74655169395244
 20
1251.395899969053
 10
-17.3837693475486
 20
1250.145289907812
  0
LWPOLYLINE
  5
A7D6
330
1F
100
AcDbEntity
  8
0
 48
0.3
100
AcDbPolyline
 90
        2
 70
     0
 43
0.0
 10
-17.65185856859378
 20
1241.549604621507
 10
-17.00670204884883
 20
1242.815795584854
  0
LWPOLYLINE
  5
A7D7
330
1F
100
AcDbEntity
  8
0
 48
0.3
100
AcDbPolyline
 90
        4
 70
     0
 43
0.0
 10
-9.24655169395244
 20
1251.395899969053
 10
-9.803623856834306
 20
1250.302584289856
 42
-0.5828351435596054
 10
-9.977474280894071
 20
1250.294903435848
 10
-10.66704298575639
 20
1251.395899969053
  0
LWPOLYLINE
  5
A7D8
330
1F
100
AcDbEntity
  8
0
 48
0.3
100
AcDbPolyline
 90
        2
 70
     0
 43
0.0
 10
-11.00428901801896
 20
1242.737310377516
 10
-10.23298388158221
 20
1241.549604621507
  0
LINE
  5
A7D9
330
1F
100
AcDbEntity
  8
0
 48
0.3
100
AcDbLine
 10
-10.70679733985434
 20
1251.395899969053
 30
0.0
 11
-10.19242122508808
 21
1241.549604621507
 31
0.0
  0
LINE
  5
A7DA
330
1F
100
AcDbEntity
  8
0
 48
0.3
100
AcDbLine
 10
-11.39412124452724
 20
1250.208194213044
 30
0.0
 11
-11.00670204884886
 21
1242.815795584854
 31
0.0
  0
LINE
  5
A7DB
330
1F
100
AcDbEntity
  8
0
 48
0.3
100
AcDbLine
 10
-10.74655169395237
 20
1251.395899969053
 30
0.0
 11
-10.66704298575632
 21
1251.395899969053
 31
0.0
  0
LWPOLYLINE
  5
A7DC
330
1F
100
AcDbEntity
  8
0
 48
0.3
100
AcDbPolyline
 90
        2
 70
     0
 43
0.0
 10
-10.74655169395244
 20
1251.395899969053
 10
-11.3837693475486
 20
1250.145289907812
  0
LWPOLYLINE
  5
A7DE
330
1F
100
AcDbEntity
  8
0
 48
0.3
100
AcDbPolyline
 90
        2
 70
     0
 43
0.0
 10
-8.394121244527312
 20
1250.208194213044
 10
-9.165426380964007
 20
1251.395899969053
  0
LINE
  5
A7DF
330
1F
100
AcDbEntity
  8
0
 48
0.3
100
AcDbLine
 10
-9.246551693952369
 20
1251.395899969053
 30
0.0
 11
-9.165426380963936
 21
1251.395899969053
 31
0.0
  0
LWPOLYLINE
  5
A7E0
330
1F
100
AcDbEntity
  8
0
 48
0.3
100
AcDbPolyline
 90
        4
 70
     0
 43
0.0
 10
-10.15185856859378
 20
1241.549604621507
 10
-9.610631087222742
 20
1242.611823362314
 42
-0.5755139880968628
 10
-9.43796492275581
 20
1242.6213497636
 10
-8.733534540859551
 20
1241.549604621507
  0
LINE
  5
A7E1
330
1F
100
AcDbEntity
  8
0
 48
0.3
100
AcDbLine
 10
-10.2329838815823
 20
1241.549604621507
 30
0.0
 11
-10.15185856859375
 21
1241.549604621507
 31
0.0
  0
LINE
  5
A7E2
330
1F
100
AcDbEntity
  8
0
 48
0.3
100
AcDbLine
 10
-8.733534540859523
 20
1241.549604621507
 30
0.0
 11
-8.651858568593752
 21
1241.549604621507
 31
0.0
  0
LINE
  5
A7E3
330
1F
100
AcDbEntity
  8
0
 48
0.3
100
AcDbLine
 10
-9.205989037458266
 20
1251.395899969053
 30
0.0
 11
-8.692696554726694
 21
1241.549604621507
 31
0.0
  0
LINE
  5
A7E4
330
1F
100
AcDbEntity
  8
0
 48
0.3
100
AcDbLine
 10
-9.888310733039816
 20
1250.24808079442
 30
0.0
 11
-9.521530434803935
 21
1242.66642431234
 31
0.0
  0
LINE
  5
A7E5
330
1F
100
AcDbEntity
  8
0
 48
0.3
100
AcDbLine
 10
-8.394121244527241
 20
1250.208194213044
 30
0.0
 11
-8.195058354031971
 21
1246.409847990048
 31
0.0
  0
LWPOLYLINE
  5
A7E6
330
1F
100
AcDbEntity
  8
0
 48
0.3
100
AcDbPolyline
 90
        2
 70
     0
 43
0.0
 10
-8.65185856859378
 20
1241.549604621507
 10
-8.195058354031999
 20
1242.446125521523
  0
LINE
  5
A7F7
330
1F
100
AcDbEntity
  8
0
 48
0.3
100
AcDbLine
 10
348.7424500976942
 20
1251.632157402176
 30
0.0
 11
349.2568262124606
 21
1241.78586205463
 31
0.0
  0
LWPOLYLINE
  5
A7F8
330
1F
100
AcDbEntity
  8
0
 48
0.3
100
AcDbPolyline
 90
        2
 70
     0
 43
0.0
 10
348.4449584195297
 20
1242.973567810639
 10
349.2162635559665
 20
1241.78586205463
  0
LWPOLYLINE
  5
A7F9
330
1F
100
AcDbEntity
  8
0
 48
0.3
100
AcDbPolyline
 90
        4
 70
     0
 43
0.0
 10
350.2026957435962
 20
1251.632157402176
 10
349.6456235807144
 20
1250.538841722979
 42
-0.5828351435596054
 10
349.4717731566546
 20
1250.531160868971
 10
348.7822044517923
 20
1251.632157402176
  0
LWPOLYLINE
  5
A84C
330
1F
100
AcDbEntity
  8
0
 48
0.3
100
AcDbPolyline
 90
        2
 70
     0
 43
0.0
 10
347.2026957435963
 20
1251.632157402176
 10
346.8847044508879
 20
1251.008064350447
  0
LWPOLYLINE
  5
A84D
330
1F
100
AcDbEntity
  8
0
 48
0.3
100
AcDbPolyline
 90
        3
 70
     0
 43
0.0
 10
346.8847044508879
 20
1242.892958654929
 42
-0.3746788278168931
 10
347.0112825147929
 20
1242.857607196723
 10
347.7157128966891
 20
1241.78586205463
  0
LINE
  5
A84E
330
1F
100
AcDbEntity
  8
0
 48
0.3
100
AcDbLine
 10
346.8847044508879
 20
1243.791787278571
 30
0.0
 11
346.9277170027448
 21
1242.902681745463
 31
0.0
  0
LWPOLYLINE
  5
A853
330
1F
100
AcDbEntity
  8
0
 48
0.3
100
AcDbPolyline
 90
        2
 70
     0
 43
0.0
 10
347.7973888689549
 20
1241.78586205463
 10
348.4425453886998
 20
1243.052053017977
  0
LINE
  5
A854
330
1F
100
AcDbEntity
  8
0
 48
0.3
100
AcDbLine
 10
348.0575392238513
 20
1250.365966438829
 30
0.0
 11
348.4449584195297
 21
1242.973567810639
 31
0.0
  0
LINE
  5
A855
330
1F
100
AcDbEntity
  8
0
 48
0.3
100
AcDbLine
 10
347.2432584000904
 20
1251.632157402176
 30
0.0
 11
347.756550882822
 21
1241.78586205463
 31
0.0
  0
LINE
  5
A856
330
1F
100
AcDbEntity
  8
0
 48
0.3
100
AcDbLine
 10
347.7157128966891
 20
1241.78586205463
 30
0.0
 11
347.7973888689549
 21
1241.78586205463
 31
0.0
  0
LWPOLYLINE
  5
A857
330
1F
100
AcDbEntity
  8
0
 48
0.3
100
AcDbPolyline
 90
        2
 70
     0
 43
0.0
 10
348.7026957435962
 20
1251.632157402176
 10
348.0654780900001
 20
1250.381547340935
  0
LWPOLYLINE
  5
A858
330
1F
100
AcDbEntity
  8
0
 48
0.3
100
AcDbPolyline
 90
        2
 70
     0
 43
0.0
 10
348.0551261930214
 20
1250.444451646167
 10
347.2838210565847
 20
1251.632157402176
  0
LINE
  5
A859
330
1F
100
AcDbEntity
  8
0
 48
0.3
100
AcDbLine
 10
348.7026957435962
 20
1251.632157402176
 30
0.0
 11
348.7822044517923
 21
1251.632157402176
 31
0.0
  0
LINE
  5
A85A
330
1F
100
AcDbEntity
  8
0
 48
0.3
100
AcDbLine
 10
347.2026957435963
 20
1251.632157402176
 30
0.0
 11
347.2838210565847
 21
1251.632157402176
 31
0.0
  0
LINE
  5
A85B
330
1F
100
AcDbEntity
  8
0
 48
0.3
100
AcDbLine
 10
348.0551261930214
 20
1250.444451646167
 30
0.0
 11
348.4425453886998
 21
1243.052053017977
 31
0.0
  0
LWPOLYLINE
  5
A869
330
1F
100
AcDbEntity
  8
0
 48
0.3
100
AcDbPolyline
 90
        2
 70
     0
 43
0.0
 10
353.7973888689549
 20
1241.78586205463
 10
354.4425453886999
 20
1243.052053017977
  0
LINE
  5
A86A
330
1F
100
AcDbEntity
  8
0
 48
0.3
100
AcDbLine
 10
354.0575392238513
 20
1250.365966438829
 30
0.0
 11
354.4449584195297
 21
1242.973567810639
 31
0.0
  0
LWPOLYLINE
  5
A86B
330
1F
100
AcDbEntity
  8
0
 48
0.3
100
AcDbPolyline
 90
        2
 70
     0
 43
0.0
 10
354.7026957435962
 20
1251.632157402176
 10
354.0654780900001
 20
1250.381547340935
  0
LINE
  5
A86C
330
1F
100
AcDbEntity
  8
0
 48
0.3
100
AcDbLine
 10
354.0551261930214
 20
1250.444451646167
 30
0.0
 11
354.4425453886999
 21
1243.052053017977
 31
0.0
  0
LWPOLYLINE
  5
A86D
330
1F
100
AcDbEntity
  8
0
 48
0.3
100
AcDbPolyline
 90
        2
 70
     0
 43
0.0
 10
350.7973888689549
 20
1241.78586205463
 10
351.4425453886999
 20
1243.052053017977
  0
LINE
  5
A86E
330
1F
100
AcDbEntity
  8
0
 48
0.3
100
AcDbLine
 10
350.2432584000905
 20
1251.632157402176
 30
0.0
 11
350.756550882822
 21
1241.78586205463
 31
0.0
  0
LINE
  5
A86F
330
1F
100
AcDbEntity
  8
0
 48
0.3
100
AcDbLine
 10
351.0575392238513
 20
1250.365966438829
 30
0.0
 11
351.4449584195297
 21
1242.973567810639
 31
0.0
  0
LINE
  5
A870
330
1F
100
AcDbEntity
  8
0
 48
0.3
100
AcDbLine
 10
352.5609367045089
 20
1250.484338227543
 30
0.0
 11
352.9277170027448
 21
1242.902681745463
 31
0.0
  0
LINE
  5
A871
330
1F
100
AcDbEntity
  8
0
 48
0.3
100
AcDbLine
 10
353.2432584000904
 20
1251.632157402176
 30
0.0
 11
353.756550882822
 21
1241.78586205463
 31
0.0
  0
LINE
  5
A872
330
1F
100
AcDbEntity
  8
0
 48
0.3
100
AcDbLine
 10
351.7424500976943
 20
1251.632157402176
 30
0.0
 11
352.2568262124607
 21
1241.78586205463
 31
0.0
  0
LINE
  5
A873
330
1F
100
AcDbEntity
  8
0
 48
0.3
100
AcDbLine
 10
353.7157128966891
 20
1241.78586205463
 30
0.0
 11
353.7973888689549
 21
1241.78586205463
 31
0.0
  0
LINE
  5
A874
330
1F
100
AcDbEntity
  8
0
 48
0.3
100
AcDbLine
 10
352.2162635559664
 20
1241.78586205463
 30
0.0
 11
352.2973888689549
 21
1241.78586205463
 31
0.0
  0
LWPOLYLINE
  5
A875
330
1F
100
AcDbEntity
  8
0
 48
0.3
100
AcDbPolyline
 90
        4
 70
     0
 43
0.0
 10
352.2973888689549
 20
1241.78586205463
 10
352.838616350326
 20
1242.848080795437
 42
-0.5755139880968628
 10
353.0112825147929
 20
1242.857607196723
 10
353.7157128966891
 20
1241.78586205463
  0
LWPOLYLINE
  5
A876
330
1F
100
AcDbEntity
  8
0
 48
0.3
100
AcDbPolyline
 90
        2
 70
     0
 43
0.0
 10
351.4449584195297
 20
1242.973567810639
 10
352.2162635559665
 20
1241.78586205463
  0
LINE
  5
A877
330
1F
100
AcDbEntity
  8
0
 48
0.3
100
AcDbLine
 10
350.7157128966891
 20
1241.78586205463
 30
0.0
 11
350.7973888689549
 21
1241.78586205463
 31
0.0
  0
LWPOLYLINE
  5
A878
330
1F
100
AcDbEntity
  8
0
 48
0.3
100
AcDbPolyline
 90
        2
 70
     0
 43
0.0
 10
351.7026957435962
 20
1251.632157402176
 10
351.0654780900001
 20
1250.381547340935
  0
LWPOLYLINE
  5
A879
330
1F
100
AcDbEntity
  8
0
 48
0.3
100
AcDbPolyline
 90
        2
 70
     0
 43
0.0
 10
354.0551261930214
 20
1250.444451646167
 10
353.2838210565847
 20
1251.632157402176
  0
LWPOLYLINE
  5
A87A
330
1F
100
AcDbEntity
  8
0
 48
0.3
100
AcDbPolyline
 90
        4
 70
     0
 43
0.0
 10
353.2026957435963
 20
1251.632157402176
 10
352.6456235807144
 20
1250.538841722979
 42
-0.5828351435596054
 10
352.4717731566546
 20
1250.531160868971
 10
351.7822044517923
 20
1251.632157402176
  0
LINE
  5
A87B
330
1F
100
AcDbEntity
  8
0
 48
0.3
100
AcDbLine
 10
353.2026957435963
 20
1251.632157402176
 30
0.0
 11
353.2838210565847
 21
1251.632157402176
 31
0.0
  0
LINE
  5
A87C
330
1F
100
AcDbEntity
  8
0
 48
0.3
100
AcDbLine
 10
351.7026957435962
 20
1251.632157402176
 30
0.0
 11
351.7822044517923
 21
1251.632157402176
 31
0.0
  0
LINE
  5
A87D
330
1F
100
AcDbEntity
  8
0
 48
0.3
100
AcDbLine
 10
350.2026957435962
 20
1251.632157402176
 30
0.0
 11
350.2838210565847
 21
1251.632157402176
 31
0.0
  0
LWPOLYLINE
  5
A87E
330
1F
100
AcDbEntity
  8
0
 48
0.3
100
AcDbPolyline
 90
        2
 70
     0
 43
0.0
 10
351.0551261930213
 20
1250.444451646167
 10
350.2838210565847
 20
1251.632157402176
  0
LINE
  5
A87F
330
1F
100
AcDbEntity
  8
0
 48
0.3
100
AcDbLine
 10
351.0551261930213
 20
1250.444451646167
 30
0.0
 11
351.4425453886999
 21
1243.052053017977
 31
0.0
  0
LINE
  5
A880
330
1F
100
AcDbEntity
  8
0
 48
0.3
100
AcDbLine
 10
349.5609367045089
 20
1250.484338227543
 30
0.0
 11
349.9277170027448
 21
1242.902681745463
 31
0.0
  0
LINE
  5
A881
330
1F
100
AcDbEntity
  8
0
 48
0.3
100
AcDbLine
 10
349.2162635559664
 20
1241.78586205463
 30
0.0
 11
349.2973888689549
 21
1241.78586205463
 31
0.0
  0
LWPOLYLINE
  5
A882
330
1F
100
AcDbEntity
  8
0
 48
0.3
100
AcDbPolyline
 90
        4
 70
     0
 43
0.0
 10
349.2973888689549
 20
1241.78586205463
 10
349.8386163503259
 20
1242.848080795437
 42
-0.5755139880968628
 10
350.0112825147929
 20
1242.857607196723
 10
350.7157128966891
 20
1241.78586205463
  0
LWPOLYLINE
  5
A883
330
1F
100
AcDbEntity
  8
0
 48
0.3
100
AcDbPolyline
 90
        2
 70
     0
 43
0.0
 10
356.7973888689549
 20
1241.78586205463
 10
356.8847044508879
 20
1241.957228533026
  0
LINE
  5
A888
330
1F
100
AcDbEntity
  8
0
 48
0.3
100
AcDbLine
 10
355.5609367045089
 20
1250.484338227543
 30
0.0
 11
355.9277170027448
 21
1242.902681745463
 31
0.0
  0
LINE
  5
A889
330
1F
100
AcDbEntity
  8
0
 48
0.3
100
AcDbLine
 10
356.2432584000905
 20
1251.632157402176
 30
0.0
 11
356.756550882822
 21
1241.78586205463
 31
0.0
  0
LINE
  5
A88A
330
1F
100
AcDbEntity
  8
0
 48
0.3
100
AcDbLine
 10
354.7424500976942
 20
1251.632157402176
 30
0.0
 11
355.2568262124606
 21
1241.78586205463
 31
0.0
  0
LWPOLYLINE
  5
A88B
330
1F
100
AcDbEntity
  8
0
 48
0.3
100
AcDbPolyline
 90
        2
 70
     0
 43
0.0
 10
354.4449584195297
 20
1242.973567810639
 10
355.2162635559665
 20
1241.78586205463
  0
LWPOLYLINE
  5
A890
330
1F
100
AcDbEntity
  8
0
 48
0.3
100
AcDbPolyline
 90
        4
 70
     0
 43
0.0
 10
355.2973888689549
 20
1241.78586205463
 10
355.8386163503259
 20
1242.848080795437
 42
-0.5755139880968628
 10
356.0112825147929
 20
1242.857607196723
 10
356.7157128966891
 20
1241.78586205463
  0
LINE
  5
A891
330
1F
100
AcDbEntity
  8
0
 48
0.3
100
AcDbLine
 10
355.2162635559664
 20
1241.78586205463
 30
0.0
 11
355.2973888689549
 21
1241.78586205463
 31
0.0
  0
LINE
  5
A892
330
1F
100
AcDbEntity
  8
0
 48
0.3
100
AcDbLine
 10
356.7157128966891
 20
1241.78586205463
 30
0.0
 11
356.7973888689549
 21
1241.78586205463
 31
0.0
  0
LWPOLYLINE
  5
A893
330
1F
100
AcDbEntity
  8
0
 48
0.3
100
AcDbPolyline
 90
        4
 70
     0
 43
0.0
 10
356.2026957435962
 20
1251.632157402176
 10
355.6456235807144
 20
1250.538841722979
 42
-0.5828351435596054
 10
355.4717731566546
 20
1250.531160868971
 10
354.7822044517923
 20
1251.632157402176
  0
LINE
  5
A894
330
1F
100
AcDbEntity
  8
0
 48
0.3
100
AcDbLine
 10
354.7026957435962
 20
1251.632157402176
 30
0.0
 11
354.7822044517923
 21
1251.632157402176
 31
0.0
  0
LINE
  5
A899
330
1F
100
AcDbEntity
  8
0
 48
0.3
100
AcDbLine
 10
356.2026957435962
 20
1251.632157402176
 30
0.0
 11
356.2838210565847
 21
1251.632157402176
 31
0.0
  0
LWPOLYLINE
  5
A89A
330
1F
100
AcDbEntity
  8
0
 48
0.3
100
AcDbPolyline
 90
        2
 70
     0
 43
0.0
 10
356.8847044508879
 20
1250.70687811595
 10
356.2838210565847
 20
1251.632157402176
  0
LINE
  5
A8AC
330
1F
100
AcDbEntity
  8
0
 62
     0
 48
0.5
100
AcDbLine
 10
346.8847044508879
 20
1251.008064350447
 30
0.0
 11
346.8847044508879
 21
1243.791787278571
 31
0.0
  0
LINE
  5
A8AE
330
1F
100
AcDbEntity
  8
0
 62
     0
 48
0.5
100
AcDbLine
 10
298.6419957808515
 20
1250.145289907812
 30
0.0
 11
299.02941497653
 21
1249.611124492499
 31
0.0
  0
LINE
  5
A8AF
330
1F
100
AcDbEntity
  8
0
 62
     0
 48
0.5
100
AcDbLine
 10
299.02941497653
 20
1249.611124492499
 30
0.0
 11
299.02941497653
 21
1242.752891279622
 31
0.0
  0
LINE
  5
A8B0
330
1F
100
AcDbEntity
  8
0
 62
     0
 48
0.5
100
AcDbLine
 10
274.02941497653
 20
1251.041617844126
 30
0.0
 11
274.02941497653
 21
1241.855152398804
 31
0.0
  0
LINE
  5
A8B6
330
1F
100
AcDbEntity
  8
0
 62
     0
 48
0.5
100
AcDbLine
 10
-8.195058354031971
 20
1242.446125521523
 30
0.0
 11
-8.195058354031971
 21
1246.672915572232
 31
0.0
  0
MTEXT
  5
A8CD
330
1F
100
AcDbEntity
  8
0
 62
     0
 48
0.5
100
AcDbMText
 10
3.056952764979541
 20
1223.906897597198
 30
0.0
 40
6.0
 41
0.0
 71
     1
 72
     1
  1
端子金具（長さ調整可）
 73
     1
 44
1.0
  0
MTEXT
  5
A8CE
330
1F
100
AcDbEntity
  8
0
 62
     0
 48
0.5
100
AcDbMText
 10
236.9035564773212
 20
1223.906897597198
 30
0.0
 40
6.0
 41
0.0
 71
     1
 72
     1
  1
M10スレッド
 73
     1
 44
1.0
  0
MTEXT
  5
A8CF
330
1F
100
AcDbEntity
  8
0
 62
     0
 48
0.5
100
AcDbMText
 10
294.5794392465836
 20
1224.89728332788
 30
0.0
 40
6.0
 41
0.0
 71
     1
 72
     1
  1
スレッドスリーブ
 73
     1
 44
1.0
  0
MTEXT
  5
A8D0
330
1F
100
AcDbEntity
  8
0
 62
     0
 48
0.5
100
AcDbMText
 10
162.2783243620961
 20
1223.906897597198
 30
0.0
 40
6.0
 41
0.0
 71
     1
 72
     1
  1
防犯カバー
 73
     1
 44
1.0
  0
LINE
  5
A8E5
330
1F
100
AcDbEntity
  8
0
 62
     0
 48
0.5
100
AcDbLine
 10
124.8889062774061
 20
1150.202732824258
 30
0.0
 11
124.8889062774061
 21
1150.522019579258
 31
0.0
  0
LINE
  5
A8E7
330
1F
100
AcDbEntity
  8
0
 62
     0
 48
0.5
100
AcDbLine
 10
123.2889062774061
 20
1150.202732824258
 30
0.0
 11
123.2889062774061
 21
1151.802732824258
 31
0.0
  0
LINE
  5
A8EC
330
1F
100
AcDbEntity
  8
0
 62
     0
 48
0.5
100
AcDbLine
 10
420.959637000792
 20
980.8905988744237
 30
0.0
 11
125.12383631032
 21
1151.691478038996
 31
0.0
  0
LINE
  5
A8ED
330
1F
100
AcDbEntity
  8
0
 62
     0
 48
0.5
100
AcDbLine
 10
420.1596370007921
 20
979.5049582283686
 30
0.0
 11
124.888906277406
 21
1149.979594095333
 31
0.0
  0
LINE
  5
A8EF
330
1F
100
AcDbEntity
  8
0
 62
     0
 48
0.5
100
AcDbLine
 10
124.888906277406
 20
1040.202732824258
 30
0.0
 11
124.888906277406
 21
1150.202732824258
 31
0.0
  0
LINE
  5
A8F0
330
1F
100
AcDbEntity
  8
0
 62
     0
 48
0.5
100
AcDbLine
 10
124.8889062774061
 20
1150.202732824258
 30
0.0
 11
124.888906277406
 21
1040.202732824258
 31
0.0
  0
LINE
  5
A8F1
330
1F
100
AcDbEntity
  8
0
 62
     0
 48
0.5
100
AcDbLine
 10
123.2889062774061
 20
1040.202732824258
 30
0.0
 11
123.2889062774061
 21
1150.202732824258
 31
0.0
  0
LINE
  5
A8F2
330
1F
100
AcDbEntity
  8
0
 62
     0
 48
0.5
100
AcDbLine
 10
123.2889062774061
 20
1150.202732824258
 30
0.0
 11
123.2889062774061
 21
1040.202732824258
 31
0.0
  0
LINE
  5
A8F3
330
1F
100
AcDbEntity
  8
0
 62
     0
 48
0.5
100
AcDbLine
 10
123.2889062774061
 20
1151.802732824258
 30
0.0
 11
124.8889062774061
 21
1151.802732824258
 31
0.0
  0
LINE
  5
A8F5
330
1F
100
AcDbEntity
  8
0
 62
     0
 48
0.5
100
AcDbLine
 10
124.888906277406
 20
1149.979594095333
 30
0.0
 11
124.8889062774061
 21
1151.802732824258
 31
0.0
  0
LINE
  5
A8F6
330
1F
100
AcDbEntity
  8
0
 62
     0
 48
0.5
100
AcDbLine
 10
124.8889062774061
 20
1151.802732824258
 30
0.0
 11
125.12383631032
 21
1151.691478038996
 31
0.0
  0
LINE
  5
A8F7
330
1F
100
AcDbEntity
  8
0
 62
     0
 48
0.5
100
AcDbLine
 10
273.2889062774061
 20
1063.600192445814
 30
0.0
 11
273.2889062774061
 21
1064.300814147592
 31
0.0
  0
LINE
  5
A8F8
330
1F
100
AcDbEntity
  8
0
 62
     0
 48
0.5
100
AcDbLine
 10
420.1596370007921
 20
979.5049582283686
 30
0.0
 11
420.959637000792
 21
979.0249877171863
 31
0.0
  0
LINE
  5
A8FC
330
1F
100
AcDbEntity
  8
0
 62
     0
 48
0.5
100
AcDbLine
 10
420.959637000792
 20
980.8905988744237
 30
0.0
 11
422.5596370007921
 21
979.9620120031574
 31
0.0
  0
LINE
  5
A8FF
330
1F
100
AcDbEntity
  8
0
 62
     0
 48
0.5
100
AcDbLine
 10
420.9596370007921
 20
979.0249877171861
 30
0.0
 11
420.9596370007919
 21
870.4612736554718
 31
0.0
  0
LINE
  5
A900
330
1F
100
AcDbEntity
  8
0
 62
     0
 48
0.5
100
AcDbLine
 10
420.9596370007921
 20
979.0249877171861
 30
0.0
 11
422.5596370007921
 21
979.9620120031574
 31
0.0
  0
LINE
  5
AA72
330
1F
100
AcDbEntity
  8
Object
 62
     0
 48
0.5
100
AcDbLine
 10
321.7482707535245
 20
1138.663587024119
 30
0.0
 11
395.3604300752017
 21
1096.163587024119
 31
0.0
  0
LINE
  5
AA74
330
1F
100
AcDbEntity
  8
Object
 62
     0
 48
0.5
100
AcDbLine
 10
385.8604300752017
 20
1079.709104352215
 30
0.0
 11
312.2482707535243
 21
1122.209104352215
 31
0.0
  0
LINE
  5
AA82
330
1F
100
AcDbEntity
  8
Object
 62
     0
 48
0.5
100
AcDbLine
 10
392.1104300752016
 20
1090.53442189952
 30
0.0
 11
400.3353887462919
 21
1085.785739796693
 31
0.0
  0
LINE
  5
AA85
330
1F
100
AcDbEntity
  8
Object
 62
     0
 48
0.5
100
AcDbLine
 10
395.3604300752017
 20
1096.163587024119
 30
0.0
 11
385.8604300752017
 21
1079.709104352215
 31
0.0
  0
LINE
  5
AA86
330
1F
100
AcDbEntity
  8
Object
 62
     0
 48
0.5
100
AcDbLine
 10
397.335388746292
 20
1080.589587373986
 30
0.0
 11
389.1104300752017
 21
1085.338269476813
 31
0.0
  0
LINE
  5
AA9F
330
1F
100
AcDbEntity
  8
Object
 62
     0
 48
0.5
100
AcDbLine
 10
518.8060662695882
 20
1005.659473531663
 30
0.0
 11
542.8060662695882
 21
1005.659473531663
 31
0.0
  0
LINE
  5
AAA0
330
1F
100
AcDbEntity
  8
Object
 62
     0
 48
0.5
100
AcDbLine
 10
542.8060662695882
 20
1021.659473531663
 30
0.0
 11
518.8060662695882
 21
1021.659473531663
 31
0.0
  0
LINE
  5
AAA6
330
1F
100
AcDbEntity
  8
Object
 62
     0
 48
0.5
100
AcDbLine
 10
486.1437437356541
 20
1042.678438976726
 30
0.0
 11
481.7437437356542
 21
1035.057415423423
 31
0.0
  0
LINE
  5
AAA7
330
1F
100
AcDbEntity
  8
Object
 62
     0
 48
0.5
100
AcDbLine
 10
477.8633589779247
 20
1027.136391870119
 30
0.0
 11
486.6633589779247
 21
1042.378438976726
 31
0.0
  0
LINE
  5
AAAA
330
1F
100
AcDbEntity
  8
Object
 62
     0
 48
0.5
100
AcDbLine
 10
464.0931086410431
 20
1054.485618653698
 30
0.0
 11
485.6571411952756
 21
1042.035618653698
 31
0.0
  0
LINE
  5
AAB2
330
1F
100
AcDbEntity
  8
Object
 62
     0
 48
0.5
100
AcDbLine
 10
450.5309308145521
 20
1044.995237596932
 30
0.0
 11
457.5309308145522
 21
1057.119593249914
 31
0.0
  0
LINE
  5
AAB3
330
1F
100
AcDbEntity
  8
Object
 62
     0
 48
0.5
100
AcDbLine
 10
456.5931086410432
 20
1041.495237596932
 30
0.0
 11
450.5309308145521
 21
1044.995237596932
 31
0.0
  0
LINE
  5
AAB9
330
1F
100
AcDbEntity
  8
Object
 62
     0
 48
0.5
100
AcDbLine
 10
481.7437437356542
 20
1035.057415423423
 30
0.0
 11
477.3437437356542
 21
1027.43639187012
 31
0.0
  0
LINE
  5
AABA
330
1F
100
AcDbEntity
  8
Object
 62
     0
 48
0.5
100
AcDbLine
 10
477.6571411952756
 20
1028.179212193147
 30
0.0
 11
456.0931086410432
 21
1040.629212193147
 31
0.0
  0
LINE
  5
AABB
330
1F
100
AcDbEntity
  8
Object
 62
     0
 48
0.5
100
AcDbLine
 10
477.3803462760326
 20
1027.299789329741
 30
0.0
 11
477.3437437356542
 21
1027.43639187012
 31
0.0
  0
LINE
  5
AABC
330
1F
100
AcDbEntity
  8
Object
 62
     0
 48
0.5
100
AcDbLine
 10
477.7267564375464
 20
1027.099789329741
 30
0.0
 11
477.8633589779247
 21
1027.136391870119
 31
0.0
  0
LINE
  5
AABD
330
1F
100
AcDbEntity
  8
Object
 62
     0
 48
0.5
100
AcDbLine
 10
478.4071411952757
 20
1029.478250298824
 30
0.0
 11
478.4937437356541
 21
1029.428250298824
 31
0.0
  0
LINE
  5
AABE
330
1F
100
AcDbEntity
  8
Object
 62
     0
 48
0.5
100
AcDbLine
 10
477.3803462760326
 20
1027.299789329741
 30
0.0
 11
477.7267564375464
 21
1027.099789329741
 31
0.0
  0
LINE
  5
AABF
330
1F
100
AcDbEntity
  8
Object
 62
     0
 48
0.5
100
AcDbLine
 10
478.4071411952757
 20
1029.478250298824
 30
0.0
 11
477.6571411952757
 21
1028.179212193147
 31
0.0
  0
LINE
  5
AAC0
330
1F
100
AcDbEntity
  8
Object
 62
     0
 48
0.5
100
AcDbLine
 10
479.0999615183034
 20
1029.078250298824
 30
0.0
 11
479.0133589779249
 21
1029.128250298824
 31
0.0
  0
LINE
  5
AAC1
330
1F
100
AcDbEntity
  8
Object
 62
     0
 48
0.5
100
AcDbLine
 10
478.3499615183033
 20
1027.779212193147
 30
0.0
 11
479.0999615183034
 21
1029.078250298824
 31
0.0
  0
LINE
  5
AAC2
330
1F
100
AcDbEntity
  8
Object
 62
     0
 48
0.5
100
AcDbLine
 10
456.0931086410432
 20
1040.629212193147
 30
0.0
 11
456.5931086410432
 21
1041.495237596932
 31
0.0
  0
LINE
  5
AAC3
330
1F
100
AcDbEntity
  8
Object
 62
     0
 48
0.5
100
AcDbLine
 10
457.5309308145522
 20
1057.119593249914
 30
0.0
 11
463.5931086410432
 21
1053.619593249914
 31
0.0
  0
LINE
  5
AAC4
330
1F
100
AcDbEntity
  8
Object
 62
     0
 48
0.5
100
AcDbLine
 10
463.5931086410432
 20
1053.619593249914
 30
0.0
 11
464.0931086410431
 21
1054.485618653698
 31
0.0
  0
LINE
  5
AAC7
330
1F
100
AcDbEntity
  8
Object
 62
     0
 48
0.5
100
AcDbLine
 10
507.0118376355281
 20
1011.231270301388
 30
0.0
 11
514.8060662695882
 21
1006.731270301388
 31
0.0
  0
LINE
  5
AAC8
330
1F
100
AcDbEntity
  8
Object
 62
     0
 48
0.5
100
AcDbLine
 10
511.0118376355281
 20
1018.159473531663
 30
0.0
 11
507.0118376355281
 21
1011.231270301388
 31
0.0
  0
LINE
  5
AAC9
330
1F
100
AcDbEntity
  8
Object
 62
     0
 48
0.5
100
AcDbLine
 10
503.5477360203904
 20
1013.231270301387
 30
0.0
 11
511.5477360203905
 21
1027.087676761939
 31
0.0
  0
LINE
  5
AACD
330
1F
100
AcDbEntity
  8
Object
 62
     0
 48
0.5
100
AcDbLine
 10
500.3235804508671
 20
1035.877347078188
 30
0.0
 11
495.3235804508669
 21
1027.217093040344
 31
0.0
  0
LINE
  5
AACE
330
1F
100
AcDbEntity
  8
Object
 62
     0
 48
0.5
100
AcDbLine
 10
488.5915296432981
 20
1019.556839002499
 30
0.0
 11
498.5915296432982
 21
1036.877347078188
 31
0.0
  0
LINE
  5
AACF
330
1F
100
AcDbEntity
  8
Object
 62
     0
 48
0.5
100
AcDbLine
 10
495.3235804508669
 20
1027.217093040344
 30
0.0
 11
490.3235804508672
 21
1018.556839002499
 31
0.0
  0
LINE
  5
AAD0
330
1F
100
AcDbEntity
  8
Object
 62
     0
 48
0.5
100
AcDbLine
 10
490.3235804508672
 20
1018.556839002499
 30
0.0
 11
488.5915296432981
 21
1019.556839002499
 31
0.0
  0
LINE
  5
AAD1
330
1F
100
AcDbEntity
  8
Object
 62
     0
 48
0.5
100
AcDbLine
 10
507.5477360203905
 20
1020.159473531663
 30
0.0
 11
505.0477360203903
 21
1015.829346512741
 31
0.0
  0
LINE
  5
AAD4
330
1F
100
AcDbEntity
  8
Object
 62
     0
 48
0.5
100
AcDbLine
 10
507.0118376355281
 20
1011.231270301388
 30
0.0
 11
503.5477360203904
 21
1013.231270301387
 31
0.0
  0
LINE
  5
AAD8
330
1F
100
AcDbEntity
  8
Object
 62
     0
 48
0.5
100
AcDbLine
 10
499.2804311749774
 20
1029.840081497747
 30
0.0
 11
500.2366354106047
 21
1030.096295650483
 31
0.0
  0
LINE
  5
AADC
330
1F
100
AcDbEntity
  8
Object
 62
     0
 48
0.5
100
AcDbLine
 10
498.5915296432982
 20
1036.877347078188
 30
0.0
 11
500.3235804508671
 21
1035.877347078188
 31
0.0
  0
LINE
  5
AADD
330
1F
100
AcDbEntity
  8
Object
 62
     0
 48
0.5
100
AcDbLine
 10
486.1437437356541
 20
1042.678438976726
 30
0.0
 11
486.2803462760326
 21
1042.715041517104
 31
0.0
  0
LINE
  5
AADE
330
1F
100
AcDbEntity
  8
Object
 62
     0
 48
0.5
100
AcDbLine
 10
486.6267564375464
 20
1042.515041517104
 30
0.0
 11
486.6633589779247
 21
1042.378438976726
 31
0.0
  0
LINE
  5
AADF
330
1F
100
AcDbEntity
  8
Object
 62
     0
 48
0.5
100
AcDbLine
 10
484.9937437356542
 20
1040.686580548022
 30
0.0
 11
484.9071411952756
 21
1040.736580548022
 31
0.0
  0
LINE
  5
AAE0
330
1F
100
AcDbEntity
  8
Object
 62
     0
 48
0.5
100
AcDbLine
 10
486.6267564375464
 20
1042.515041517104
 30
0.0
 11
486.2803462760326
 21
1042.715041517104
 31
0.0
  0
LINE
  5
AAE1
330
1F
100
AcDbEntity
  8
Object
 62
     0
 48
0.5
100
AcDbLine
 10
486.3499615183033
 20
1041.635618653698
 30
0.0
 11
487.908807245115
 21
1040.735618653698
 31
0.0
  0
LINE
  5
AAE2
330
1F
100
AcDbEntity
  8
Object
 62
     0
 48
0.5
100
AcDbLine
 10
484.9071411952756
 20
1040.736580548022
 30
0.0
 11
485.6571411952756
 21
1042.035618653698
 31
0.0
  0
LINE
  5
AAE3
330
1F
100
AcDbEntity
  8
Object
 62
     0
 48
0.5
100
AcDbLine
 10
485.5999615183033
 20
1040.336580548022
 30
0.0
 11
485.5133589779248
 21
1040.386580548022
 31
0.0
  0
LINE
  5
AAE4
330
1F
100
AcDbEntity
  8
Object
 62
     0
 48
0.5
100
AcDbLine
 10
486.3499615183033
 20
1041.635618653698
 30
0.0
 11
485.5999615183033
 21
1040.336580548022
 31
0.0
  0
ARC
  5
AAEB
330
1F
100
AcDbEntity
  8
Object
 62
     0
 48
0.5
100
AcDbCircle
 10
518.8060662695882
 20
1013.659473531663
 30
0.0
 40
8.0
100
AcDbArc
 50
90.0
 51
254.528845556056
  0
CIRCLE
  5
AAEC
330
1F
100
AcDbEntity
  8
Object
 62
     0
 48
0.5
100
AcDbCircle
 10
518.8060662695882
 20
1013.659473531663
 30
0.0
 40
3.0
  0
LINE
  5
AAED
330
1F
100
AcDbEntity
  8
Object
 62
     0
 48
0.5
100
AcDbLine
 10
518.8060662695882
 20
1005.659473531663
 30
0.0
 11
516.6720406491931
 21
1005.949354553885
 31
0.0
  0
CIRCLE
  5
AAEE
330
1F
100
AcDbEntity
  8
Object
 62
     0
 48
0.5
100
AcDbCircle
 10
518.8060662695882
 20
1013.659473531663
 30
0.0
 40
1.75
  0
LINE
  5
AAEF
330
1F
100
AcDbEntity
  8
Object
 62
     0
 48
0.5
100
AcDbLine
 10
515.0118376355282
 20
1025.087676761939
 30
0.0
 11
520.949659809037
 21
1021.659473531663
 31
0.0
  0
LINE
  5
AAF0
330
1F
100
AcDbEntity
  8
Object
 62
     0
 48
0.5
100
AcDbLine
 10
511.5477360203905
 20
1027.087676761939
 30
0.0
 11
515.0118376355282
 21
1025.087676761939
 31
0.0
  0
LINE
  5
AAF1
330
1F
100
AcDbEntity
  8
Object
 62
     0
 48
0.5
100
AcDbLine
 10
515.0118376355282
 20
1025.087676761939
 30
0.0
 11
511.0118376355281
 21
1018.159473531663
 31
0.0
  0
LINE
  5
AAF7
330
1F
100
AcDbEntity
  8
Object
 62
     0
 48
0.5
100
AcDbLine
 10
546.6529786194468
 20
1021.281839619415
 30
0.0
 11
546.6518185803841
 21
1013.659473531663
 31
0.0
  0
LINE
  5
AAF8
330
1F
100
AcDbEntity
  8
Object
 62
     0
 48
0.5
100
AcDbLine
 10
549.151818580384
 20
1005.959473531663
 30
0.0
 11
549.151818580384
 21
1021.359473531663
 31
0.0
  0
LINE
  5
AAF9
330
1F
100
AcDbEntity
  8
Object
 62
     0
 48
0.5
100
AcDbLine
 10
542.8060662695882
 20
1005.659473531663
 30
0.0
 11
542.8060662695882
 21
1021.659473531663
 31
0.0
  0
LINE
  5
AAFA
330
1F
100
AcDbEntity
  8
Object
 62
     0
 48
0.5
100
AcDbLine
 10
548.8518185803841
 20
1005.659473531663
 30
0.0
 11
549.151818580384
 21
1005.959473531663
 31
0.0
  0
LINE
  5
AAFB
330
1F
100
AcDbEntity
  8
Object
 62
     0
 48
0.5
100
AcDbLine
 10
546.9518185803841
 20
1005.659473531663
 30
0.0
 11
546.6518185803841
 21
1005.959473531663
 31
0.0
  0
LINE
  5
AAFC
330
1F
100
AcDbEntity
  8
Object
 62
     0
 48
0.5
100
AcDbLine
 10
546.9518185803841
 20
1005.659473531663
 30
0.0
 11
548.8518185803841
 21
1005.659473531663
 31
0.0
  0
LINE
  5
AAFD
330
1F
100
AcDbEntity
  8
Object
 62
     0
 48
0.5
100
AcDbLine
 10
546.6518185803841
 20
1013.659473531663
 30
0.0
 11
549.151818580384
 21
1015.401241226584
 31
0.0
  0
LINE
  5
AAFE
330
1F
100
AcDbEntity
  8
Object
 62
     0
 48
0.5
100
AcDbLine
 10
546.6518185803841
 20
1013.659473531663
 30
0.0
 11
546.6518185803841
 21
1005.959473531663
 31
0.0
  0
LINE
  5
AAFF
330
1F
100
AcDbEntity
  8
Object
 62
     0
 48
0.5
100
AcDbLine
 10
542.8060662695882
 20
1013.659473531663
 30
0.0
 11
542.8060662695882
 21
1005.659473531663
 31
0.0
  0
LINE
  5
AB00
330
1F
100
AcDbEntity
  8
Object
 62
     0
 48
0.5
100
AcDbLine
 10
549.151818580384
 20
1021.359473531663
 30
0.0
 11
548.8519632638699
 21
1021.650157461776
 31
0.0
  0
LINE
  5
AB01
330
1F
100
AcDbEntity
  8
Object
 62
     0
 48
0.5
100
AcDbLine
 10
546.6529786194468
 20
1021.281839619415
 30
0.0
 11
546.9528795926129
 21
1021.591155685827
 31
0.0
  0
LINE
  5
AB02
330
1F
100
AcDbEntity
  8
Object
 62
     0
 48
0.5
100
AcDbLine
 10
548.8519632638699
 20
1021.650157461776
 30
0.0
 11
546.9528795926129
 21
1021.591155685827
 31
0.0
  0
LINE
  5
AB07
330
1F
100
AcDbEntity
  8
Object
 62
     0
 48
0.5
100
AcDbLine
 10
512.6379612342824
 20
1189.490285521688
 30
0.0
 11
555.9392314235044
 21
1164.490285521687
 31
0.0
  0
LINE
  5
AB08
330
1F
100
AcDbEntity
  8
Object
 62
     0
 48
0.5
100
AcDbLine
 10
552.9392314235046
 20
1159.294133098981
 30
0.0
 11
509.6379612342824
 21
1184.294133098981
 31
0.0
  0
LINE
  5
AB0A
330
1F
100
AcDbEntity
  8
Object
 62
     0
 48
0.5
100
AcDbLine
 10
408.0503870944912
 20
1254.409847990048
 30
0.0
 11
384.0503870944912
 21
1254.409847990048
 31
0.0
  0
LINE
  5
AB0B
330
1F
100
AcDbEntity
  8
Object
 62
     0
 48
0.5
100
AcDbLine
 10
384.0503870944912
 20
1238.409847990048
 30
0.0
 11
408.0503870944912
 21
1238.409847990048
 31
0.0
  0
LINE
  5
AB0C
330
1F
100
AcDbEntity
  8
Object
 62
     0
 48
0.5
100
AcDbLine
 10
380.2034747446327
 20
1238.787481902297
 30
0.0
 11
380.2046347836953
 21
1246.409847990048
 31
0.0
  0
LINE
  5
AB0D
330
1F
100
AcDbEntity
  8
Object
 62
     0
 48
0.5
100
AcDbLine
 10
377.7046347836953
 20
1254.109847990048
 30
0.0
 11
377.7046347836953
 21
1238.709847990048
 31
0.0
  0
LINE
  5
AB0E
330
1F
100
AcDbEntity
  8
Object
 62
     0
 48
0.5
100
AcDbLine
 10
384.0503870944912
 20
1254.409847990048
 30
0.0
 11
384.0503870944912
 21
1238.409847990048
 31
0.0
  0
LINE
  5
AB11
330
1F
100
AcDbEntity
  8
Object
 62
     0
 48
0.5
100
AcDbLine
 10
380.2034747446327
 20
1238.787481902297
 30
0.0
 11
379.9035737714666
 21
1238.478165835884
 31
0.0
  0
LINE
  5
AB12
330
1F
100
AcDbEntity
  8
Object
 62
     0
 48
0.5
100
AcDbLine
 10
377.7046347836953
 20
1238.709847990048
 30
0.0
 11
378.0044901002096
 21
1238.419164059934
 31
0.0
  0
LINE
  5
AB13
330
1F
100
AcDbEntity
  8
Object
 62
     0
 48
0.5
100
AcDbLine
 10
378.0044901002096
 20
1238.419164059934
 30
0.0
 11
379.9035737714666
 21
1238.478165835884
 31
0.0
  0
LINE
  5
AB18
330
1F
100
AcDbEntity
  8
Object
 62
     0
 48
0.5
100
AcDbLine
 10
380.2046347836953
 20
1246.409847990048
 30
0.0
 11
380.2046347836953
 21
1254.109847990048
 31
0.0
  0
LINE
  5
AB19
330
1F
100
AcDbEntity
  8
Object
 62
     0
 48
0.5
100
AcDbLine
 10
384.0503870944912
 20
1246.409847990048
 30
0.0
 11
384.0503870944912
 21
1254.409847990048
 31
0.0
  0
LINE
  5
AB1A
330
1F
100
AcDbEntity
  8
Object
 62
     0
 48
0.5
100
AcDbLine
 10
380.2046347836953
 20
1246.409847990048
 30
0.0
 11
377.7046347836953
 21
1244.668080295127
 31
0.0
  0
LINE
  5
AB1B
330
1F
100
AcDbEntity
  8
Object
 62
     0
 48
0.5
100
AcDbLine
 10
379.9046347836953
 20
1254.409847990048
 30
0.0
 11
380.2046347836953
 21
1254.109847990048
 31
0.0
  0
LINE
  5
AB1C
330
1F
100
AcDbEntity
  8
Object
 62
     0
 48
0.5
100
AcDbLine
 10
378.0046347836953
 20
1254.409847990048
 30
0.0
 11
377.7046347836953
 21
1254.109847990048
 31
0.0
  0
LINE
  5
AB1D
330
1F
100
AcDbEntity
  8
Object
 62
     0
 48
0.5
100
AcDbLine
 10
379.9046347836953
 20
1254.409847990048
 30
0.0
 11
378.0046347836953
 21
1254.409847990048
 31
0.0
  0
LINE
  5
AB22
330
1F
100
AcDbEntity
  8
Object
 62
     0
 48
0.5
100
AcDbLine
 10
436.124734072437
 20
1239.207780404366
 30
0.0
 11
428.324734072437
 21
1225.697784105329
 31
0.0
  0
LINE
  5
AB23
330
1F
100
AcDbEntity
  8
Object
 62
     0
 48
0.5
100
AcDbLine
 10
434.3897975818981
 20
1231.202782254848
 30
0.0
 11
438.2897975818981
 21
1237.957780404366
 31
0.0
  0
LINE
  5
AB26
330
1F
100
AcDbEntity
  8
Object
 62
     0
 48
0.5
100
AcDbLine
 10
423.308717343689
 20
1246.838051220323
 30
0.0
 11
415.3087173436889
 21
1232.981644759772
 31
0.0
  0
LINE
  5
AB27
330
1F
100
AcDbEntity
  8
Object
 62
     0
 48
0.5
100
AcDbLine
 10
411.8446157285512
 20
1234.981644759773
 30
0.0
 11
415.8446157285511
 21
1241.909847990048
 31
0.0
  0
ARC
  5
AB28
330
1F
100
AcDbEntity
  8
Object
 62
     0
 48
0.5
100
AcDbCircle
 10
408.0503870944913
 20
1246.409847990048
 30
0.0
 40
8.0
100
AcDbArc
 50
270.0
 51
74.52884555605606
  0
LINE
  5
AB2D
330
1F
100
AcDbEntity
  8
Object
 62
     0
 48
0.5
100
AcDbLine
 10
506.3879612342822
 20
1178.664967974382
 30
0.0
 11
432.7758019126051
 21
1221.164967974382
 31
0.0
  0
LINE
  5
AB2E
330
1F
100
AcDbEntity
  8
Object
 62
     0
 48
0.5
100
AcDbLine
 10
442.275801912605
 20
1237.619450646286
 30
0.0
 11
515.8879612342825
 21
1195.119450646286
 31
0.0
  0
LINE
  5
AB2F
330
1F
100
AcDbEntity
  8
Object
 62
     0
 48
0.5
100
AcDbLine
 10
428.3979391531937
 20
1225.424579024572
 30
0.0
 11
430.2165925011412
 21
1224.374579024572
 31
0.0
  0
LINE
  5
AB32
330
1F
100
AcDbEntity
  8
Object
 62
     0
 48
0.5
100
AcDbLine
 10
411.8446157285512
 20
1234.981644759773
 30
0.0
 11
405.9067935550423
 21
1238.409847990048
 31
0.0
  0
LINE
  5
AB34
330
1F
100
AcDbEntity
  8
Object
 62
     0
 48
0.5
100
AcDbLine
 10
428.324734072437
 20
1225.697784105329
 30
0.0
 11
428.3979391531937
 21
1225.424579024572
 31
0.0
  0
LINE
  5
AB35
330
1F
100
AcDbEntity
  8
Object
 62
     0
 48
0.5
100
AcDbLine
 10
427.5760221891022
 20
1230.229240023964
 30
0.0
 11
426.551503136264
 21
1229.954720971126
 31
0.0
  0
LINE
  5
AB3C
330
1F
100
AcDbEntity
  8
Object
 62
     0
 48
0.5
100
AcDbLine
 10
441.5258019126049
 20
1236.32041254061
 30
0.0
 11
433.5258019126051
 21
1222.464006080058
 31
0.0
  0
LINE
  5
AB3D
330
1F
100
AcDbEntity
  8
Object
 62
     0
 48
0.5
100
AcDbLine
 10
430.4897975818981
 20
1224.447784105329
 30
0.0
 11
434.3897975818981
 21
1231.202782254848
 31
0.0
  0
LINE
  5
AB3F
330
1F
100
AcDbEntity
  8
Object
 62
     0
 48
0.5
100
AcDbLine
 10
430.4897975818981
 20
1224.447784105329
 30
0.0
 11
430.2165925011412
 21
1224.374579024572
 31
0.0
  0
LINE
  5
AB40
330
1F
100
AcDbEntity
  8
Object
 62
     0
 48
0.5
100
AcDbLine
 10
432.7758019126051
 20
1221.164967974382
 30
0.0
 11
433.5258019126051
 21
1222.464006080058
 31
0.0
  0
LINE
  5
AB42
330
1F
100
AcDbEntity
  8
Object
 62
     0
 48
0.5
100
AcDbLine
 10
435.4255080632634
 20
1232.996685430504
 30
0.0
 11
432.224734072437
 21
1232.452782254847
 31
0.0
  0
LINE
  5
AB43
330
1F
100
AcDbEntity
  8
Object
 62
     0
 48
0.5
100
AcDbLine
 10
442.275801912605
 20
1237.619450646286
 30
0.0
 11
441.5258019126049
 21
1236.32041254061
 31
0.0
  0
LINE
  5
AB72
330
1F
100
AcDbEntity
  8
Object
 62
     0
 48
0.5
100
AcDbLine
 10
419.3087173436889
 20
1239.909847990048
 30
0.0
 11
421.808717343689
 21
1244.23997500897
 31
0.0
  0
LINE
  5
AB73
330
1F
100
AcDbEntity
  8
Object
 62
     0
 48
0.5
100
AcDbLine
 10
419.8446157285511
 20
1248.838051220323
 30
0.0
 11
423.308717343689
 21
1246.838051220323
 31
0.0
  0
LINE
  5
AB74
330
1F
100
AcDbEntity
  8
Object
 62
     0
 48
0.5
100
AcDbLine
 10
419.8446157285511
 20
1248.838051220323
 30
0.0
 11
412.0503870944911
 21
1253.338051220323
 31
0.0
  0
CIRCLE
  5
AB75
330
1F
100
AcDbEntity
  8
Object
 62
     0
 48
0.5
100
AcDbCircle
 10
408.0503870944913
 20
1246.409847990048
 30
0.0
 40
3.0
  0
CIRCLE
  5
AB76
330
1F
100
AcDbEntity
  8
Object
 62
     0
 48
0.5
100
AcDbCircle
 10
408.0503870944913
 20
1246.409847990048
 30
0.0
 40
1.75
  0
LINE
  5
AB77
330
1F
100
AcDbEntity
  8
Object
 62
     0
 48
0.5
100
AcDbLine
 10
415.8446157285511
 20
1241.909847990048
 30
0.0
 11
419.8446157285511
 21
1248.838051220323
 31
0.0
  0
LINE
  5
AB78
330
1F
100
AcDbEntity
  8
Object
 62
     0
 48
0.5
100
AcDbLine
 10
408.0503870944912
 20
1254.409847990048
 30
0.0
 11
410.1844127148863
 21
1254.119966967826
 31
0.0
  0
LINE
  5
AB7D
330
1F
100
AcDbEntity
  8
Object
 62
     0
 48
0.5
100
AcDbLine
 10
436.3979391531938
 20
1239.280985485123
 30
0.0
 11
436.124734072437
 21
1239.207780404366
 31
0.0
  0
LINE
  5
AB7E
330
1F
100
AcDbEntity
  8
Object
 62
     0
 48
0.5
100
AcDbLine
 10
438.2165925011412
 20
1238.230985485123
 30
0.0
 11
438.2897975818981
 21
1237.957780404366
 31
0.0
  0
LINE
  5
AB7F
330
1F
100
AcDbEntity
  8
Object
 62
     0
 48
0.5
100
AcDbLine
 10
438.2165925011412
 20
1238.230985485123
 30
0.0
 11
436.3979391531938
 21
1239.280985485123
 31
0.0
  0
LINE
  5
AB80
330
1F
100
AcDbEntity
  8
0
 62
     0
 48
0.5
100
AcDbLine
 10
148.0264016512025
 20
1110.195072152383
 30
0.0
 11
133.3905723272456
 21
1118.645072152382
 31
0.0
  0
LINE
  5
AB81
330
1F
100
AcDbEntity
  8
0
 62
     0
 48
0.5
100
AcDbLine
 10
131.4905723272457
 20
1115.354175618002
 30
0.0
 11
146.1264016512028
 21
1106.904175618002
 31
0.0
  0
LINE
  5
AB82
330
1F
100
AcDbEntity
  8
Object
 62
     0
 48
0.5
100
AcDbLine
 10
130.188906277406
 20
1119.899623885192
 30
0.0
 11
125.448906277406
 21
1119.899623885192
 31
0.0
  0
LINE
  5
AB83
330
1F
100
AcDbEntity
  8
Object
 62
     0
 48
0.5
100
AcDbLine
 10
125.448906277406
 20
1116.699623885192
 30
0.0
 11
130.188906277406
 21
1116.699623885192
 31
0.0
  0
LINE
  5
AB84
330
1F
100
AcDbEntity
  8
0
 62
     0
 48
0.5
100
AcDbLine
 10
125.3889062774061
 20
1116.759623885192
 30
0.0
 11
125.448906277406
 21
1116.699623885192
 31
0.0
  0
LINE
  5
AB85
330
1F
100
AcDbEntity
  8
0
 62
     0
 48
0.5
100
AcDbLine
 10
124.888906277406
 20
1116.773831036122
 30
0.0
 11
125.3889062774061
 21
1116.773831036122
 31
0.0
  0
LINE
  5
AB86
330
1F
100
AcDbEntity
  8
0
 62
     0
 48
0.5
100
AcDbLine
 10
125.448906277406
 20
1119.899623885192
 30
0.0
 11
125.3889062774061
 21
1119.839623885192
 31
0.0
  0
LINE
  5
AB87
330
1F
100
AcDbEntity
  8
0
 62
     0
 48
0.5
100
AcDbLine
 10
125.3889062774061
 20
1119.839623885192
 30
0.0
 11
124.888906277406
 21
1119.839623885192
 31
0.0
  0
LINE
  5
AB88
330
1F
100
AcDbEntity
  8
0
 62
     0
 48
0.5
100
AcDbLine
 10
124.888906277406
 20
1118.55918130138
 30
0.0
 11
125.3889062774061
 21
1118.223559250298
 31
0.0
  0
LINE
  5
AB89
330
1F
100
AcDbEntity
  8
0
 62
     0
 48
0.5
100
AcDbLine
 10
125.3889062774061
 20
1116.759623885192
 30
0.0
 11
125.3889062774061
 21
1119.839623885192
 31
0.0
  0
LINE
  5
AB8A
330
1F
100
AcDbEntity
  8
0
 62
     0
 48
0.5
100
AcDbLine
 10
124.888906277406
 20
1119.839623885192
 30
0.0
 11
124.888906277406
 21
1116.773831036122
 31
0.0
  0
LINE
  5
AB8B
330
1F
100
AcDbEntity
  8
Object
 62
     0
 48
0.5
100
AcDbLine
 10
132.5477520042183
 20
1118.785264531247
 30
0.0
 11
133.2405723272455
 21
1118.385264531247
 31
0.0
  0
LINE
  5
AB8C
330
1F
100
AcDbEntity
  8
Object
 62
     0
 48
0.5
100
AcDbLine
 10
131.6405723272456
 20
1115.613983239137
 30
0.0
 11
130.9477520042182
 21
1116.013983239137
 31
0.0
  0
LINE
  5
AB8D
330
1F
100
AcDbEntity
  8
Object
 62
     0
 48
0.5
100
AcDbLine
 10
130.9477520042182
 20
1116.013983239137
 30
0.0
 11
129.6960954129777
 21
1116.736627509022
 31
0.0
  0
CIRCLE
  5
AB8E
330
1F
100
AcDbEntity
  8
Object
 62
     0
 48
0.5
100
AcDbCircle
 10
130.1889062774057
 20
1118.299623885192
 30
0.0
 40
0.6000000000000001
  0
LINE
  5
AB8F
330
1F
100
AcDbEntity
  8
Object
 62
     0
 48
0.5
100
AcDbLine
 10
130.188906277406
 20
1119.899623885192
 30
0.0
 11
130.6157114014851
 21
1119.841647680748
 31
0.0
  0
CIRCLE
  5
AB90
330
1F
100
AcDbEntity
  8
Object
 62
     0
 48
0.5
100
AcDbCircle
 10
130.1889062774057
 20
1118.299623885192
 30
0.0
 40
0.3500000000000001
  0
ARC
  5
AB91
330
1F
100
AcDbEntity
  8
Object
 62
     0
 48
0.5
100
AcDbCircle
 10
130.1889062774057
 20
1118.299623885192
 30
0.0
 40
1.6
100
AcDbArc
 50
270.0
 51
74.52884555605614
  0
LINE
  5
AB92
330
1F
100
AcDbEntity
  8
Object
 62
     0
 48
0.5
100
AcDbLine
 10
130.9477520042182
 20
1116.013983239137
 30
0.0
 11
131.7477520042181
 21
1117.399623885192
 31
0.0
  0
LINE
  5
AB93
330
1F
100
AcDbEntity
  8
Object
 62
     0
 48
0.5
100
AcDbLine
 10
132.5477520042183
 20
1118.785264531247
 30
0.0
 11
130.9889062774059
 21
1119.685264531247
 31
0.0
  0
LINE
  5
AB94
330
1F
100
AcDbEntity
  8
0
 62
     0
 48
0.5
100
AcDbLine
 10
133.3905723272456
 20
1118.645072152382
 30
0.0
 11
131.4905723272457
 21
1115.354175618002
 31
0.0
  0
LINE
  5
AB95
330
1F
100
AcDbEntity
  8
Object
 62
     0
 48
0.5
100
AcDbLine
 10
131.7477520042181
 20
1117.399623885192
 30
0.0
 11
132.5477520042183
 21
1118.785264531247
 31
0.0
  0
LINE
  5
AB96
330
1F
100
AcDbEntity
  8
0
 62
     0
 48
0.5
100
AcDbLine
 10
148.0630041915811
 20
1110.058469612004
 30
0.0
 11
148.0264016512025
 21
1110.195072152383
 31
0.0
  0
LINE
  5
AB97
330
1F
100
AcDbEntity
  8
0
 62
     0
 48
0.5
100
AcDbLine
 10
146.2630041915811
 20
1106.94077815838
 30
0.0
 11
146.1264016512028
 21
1106.904175618002
 31
0.0
  0
LINE
  5
AB98
330
1F
100
AcDbEntity
  8
0
 62
     0
 48
0.5
100
AcDbLine
 10
146.2630041915811
 20
1106.94077815838
 30
0.0
 11
148.0630041915811
 21
1110.058469612004
 31
0.0
  0
LINE
  5
AB9A
330
1F
100
AcDbEntity
  8
0
 62
     0
 48
0.5
100
AcDbLine
 10
123.2889062774061
 20
1086.406727460657
 30
0.0
 11
123.2889062774061
 21
1082.606727460657
 31
0.0
  0
LINE
  5
AB9E
330
1F
100
AcDbEntity
  8
0
 62
     0
 48
0.5
100
AcDbLine
 10
397.8221416269955
 20
956.712799954448
 30
0.0
 11
412.4579709509525
 21
948.2627999544483
 31
0.0
  0
LINE
  5
AB9F
330
1F
100
AcDbEntity
  8
0
 62
     0
 48
0.5
100
AcDbLine
 10
414.3579709509523
 20
951.5536964888287
 30
0.0
 11
399.7221416269953
 21
960.0036964888289
 31
0.0
  0
LINE
  5
ABA0
330
1F
100
AcDbEntity
  8
0
 62
     0
 48
0.5
100
AcDbLine
 10
397.785539086617
 20
956.8494024948263
 30
0.0
 11
397.8221416269955
 21
956.712799954448
 31
0.0
  0
LINE
  5
ABA1
330
1F
100
AcDbEntity
  8
0
 62
     0
 48
0.5
100
AcDbLine
 10
399.585539086617
 20
959.9670939484502
 30
0.0
 11
399.7221416269953
 21
960.0036964888289
 31
0.0
  0
LINE
  5
ABA2
330
1F
100
AcDbEntity
  8
0
 62
     0
 48
0.5
100
AcDbLine
 10
399.585539086617
 20
959.9670939484502
 30
0.0
 11
397.785539086617
 21
956.8494024948263
 31
0.0
  0
LINE
  5
ABA3
330
1F
100
AcDbEntity
  8
Object
 62
     0
 48
0.5
100
AcDbLine
 10
414.9007912739799
 20
950.8938888676938
 30
0.0
 11
416.1524478652204
 21
950.1712445978082
 31
0.0
  0
CIRCLE
  5
ABA4
330
1F
100
AcDbEntity
  8
Object
 62
     0
 48
0.5
100
AcDbCircle
 10
415.6596370007924
 20
948.6082482216383
 30
0.0
 40
0.6000000000000001
  0
LINE
  5
ABA5
330
1F
100
AcDbEntity
  8
Object
 62
     0
 48
0.5
100
AcDbLine
 10
415.6596370007921
 20
947.0082482216383
 30
0.0
 11
415.232831876713
 21
947.0662244260829
 31
0.0
  0
CIRCLE
  5
ABA6
330
1F
100
AcDbEntity
  8
Object
 62
     0
 48
0.5
100
AcDbCircle
 10
415.6596370007924
 20
948.6082482216383
 30
0.0
 40
0.3500000000000001
  0
ARC
  5
ABA7
330
1F
100
AcDbEntity
  8
Object
 62
     0
 48
0.5
100
AcDbCircle
 10
415.6596370007924
 20
948.6082482216383
 30
0.0
 40
1.6
100
AcDbArc
 50
90.00000000000003
 51
254.5288455560561
  0
LINE
  5
ABA8
330
1F
100
AcDbEntity
  8
Object
 62
     0
 48
0.5
100
AcDbLine
 10
413.3007912739798
 20
948.1226075755834
 30
0.0
 11
412.6079709509526
 21
948.522607575583
 31
0.0
  0
LINE
  5
ABA9
330
1F
100
AcDbEntity
  8
Object
 62
     0
 48
0.5
100
AcDbLine
 10
414.2079709509525
 20
951.2938888676934
 30
0.0
 11
414.9007912739799
 21
950.8938888676938
 31
0.0
  0
LINE
  5
ABAA
330
1F
100
AcDbEntity
  8
Object
 62
     0
 48
0.5
100
AcDbLine
 10
414.9007912739799
 20
950.8938888676938
 30
0.0
 11
414.10079127398
 21
949.5082482216387
 31
0.0
  0
LINE
  5
ABAB
330
1F
100
AcDbEntity
  8
Object
 62
     0
 48
0.5
100
AcDbLine
 10
413.3007912739798
 20
948.1226075755834
 30
0.0
 11
414.8596370007921
 21
947.2226075755832
 31
0.0
  0
LINE
  5
ABAC
330
1F
100
AcDbEntity
  8
0
 62
     0
 48
0.5
100
AcDbLine
 10
412.4579709509525
 20
948.2627999544483
 30
0.0
 11
414.3579709509523
 21
951.5536964888287
 31
0.0
  0
LINE
  5
ABAD
330
1F
100
AcDbEntity
  8
Object
 62
     0
 48
0.5
100
AcDbLine
 10
414.10079127398
 20
949.5082482216387
 30
0.0
 11
413.3007912739798
 21
948.1226075755834
 31
0.0
  0
LINE
  5
ABAE
330
1F
100
AcDbEntity
  8
Object
 62
     0
 48
0.5
100
AcDbLine
 10
415.6596370007921
 20
947.0082482216383
 30
0.0
 11
420.3996370007921
 21
947.0082482216383
 31
0.0
  0
LINE
  5
ABAF
330
1F
100
AcDbEntity
  8
Object
 62
     0
 48
0.5
100
AcDbLine
 10
420.3996370007921
 20
950.2082482216387
 30
0.0
 11
415.6596370007921
 21
950.2082482216382
 31
0.0
  0
LINE
  5
ABB0
330
1F
100
AcDbEntity
  8
0
 62
     0
 48
0.5
100
AcDbLine
 10
420.4596370007919
 20
950.1482482216383
 30
0.0
 11
420.3996370007921
 21
950.2082482216387
 31
0.0
  0
LINE
  5
ABB1
330
1F
100
AcDbEntity
  8
0
 62
     0
 48
0.5
100
AcDbLine
 10
420.959637000792
 20
950.1340410707083
 30
0.0
 11
420.459637000792
 21
950.1340410707083
 31
0.0
  0
LINE
  5
ABB2
330
1F
100
AcDbEntity
  8
0
 62
     0
 48
0.5
100
AcDbLine
 10
420.3996370007921
 20
947.0082482216383
 30
0.0
 11
420.459637000792
 21
947.0682482216384
 31
0.0
  0
LINE
  5
ABB3
330
1F
100
AcDbEntity
  8
0
 62
     0
 48
0.5
100
AcDbLine
 10
420.459637000792
 20
947.0682482216384
 30
0.0
 11
420.959637000792
 21
947.0682482216384
 31
0.0
  0
LINE
  5
ABB4
330
1F
100
AcDbEntity
  8
0
 62
     0
 48
0.5
100
AcDbLine
 10
420.9596370007921
 20
948.3486908054505
 30
0.0
 11
420.459637000792
 21
948.6843128565327
 31
0.0
  0
LINE
  5
ABB5
330
1F
100
AcDbEntity
  8
0
 62
     0
 48
0.5
100
AcDbLine
 10
420.4596370007919
 20
950.1482482216383
 30
0.0
 11
420.459637000792
 21
947.0682482216384
 31
0.0
  0
LINE
  5
ABB6
330
1F
100
AcDbEntity
  8
0
 62
     0
 48
0.5
100
AcDbLine
 10
420.959637000792
 20
947.0682482216384
 30
0.0
 11
420.959637000792
 21
950.1340410707083
 31
0.0
  0
LINE
  5
ABC0
330
1F
100
AcDbEntity
  8
0
 62
     0
 48
0.5
100
AcDbLine
 10
147.4630041915811
 20
1109.019239127463
 30
0.0
 11
273.2889062774061
 21
1033.93498178229
 31
0.0
  0
LINE
  5
ABC1
330
1F
100
AcDbEntity
  8
0
 62
     0
 48
0.5
100
AcDbLine
 10
398.3855390866171
 20
957.8886329793675
 30
0.0
 11
274.8889062774062
 21
1031.582942381451
 31
0.0
  0
LINE
  5
ABC2
330
1F
100
AcDbEntity
  8
0
 62
     0
 48
0.5
100
AcDbLine
 10
274.8889062774062
 20
1032.980211661346
 30
0.0
 11
398.985539086617
 21
958.9278634639089
 31
0.0
  0
LINE
  5
ABC3
330
1F
100
AcDbEntity
  8
0
 62
     0
 48
0.5
100
AcDbLine
 10
273.2889062774061
 20
1032.537712502395
 30
0.0
 11
146.8630041915811
 21
1107.980008642922
 31
0.0
  0
LINE
  5
AC0C
330
1F
100
AcDbEntity
  8
Object
 62
     0
 48
0.5
100
AcDbLine
 10
125.448906277406
 20
1082.899623885192
 30
0.0
 11
130.188906277406
 21
1082.899623885192
 31
0.0
  0
LINE
  5
AC0D
330
1F
100
AcDbEntity
  8
Object
 62
     0
 48
0.5
100
AcDbLine
 10
130.188906277406
 20
1086.099623885192
 30
0.0
 11
125.448906277406
 21
1086.099623885192
 31
0.0
  0
LINE
  5
AC0E
330
1F
100
AcDbEntity
  8
0
 62
     0
 48
0.5
100
AcDbLine
 10
124.888906277406
 20
1086.039623885192
 30
0.0
 11
124.888906277406
 21
1082.973831036122
 31
0.0
  0
LINE
  5
AC0F
330
1F
100
AcDbEntity
  8
0
 62
     0
 48
0.5
100
AcDbLine
 10
125.3889062774061
 20
1082.959623885192
 30
0.0
 11
125.3889062774061
 21
1086.039623885192
 31
0.0
  0
LINE
  5
AC10
330
1F
100
AcDbEntity
  8
0
 62
     0
 48
0.5
100
AcDbLine
 10
124.888906277406
 20
1084.75918130138
 30
0.0
 11
125.3889062774061
 21
1084.423559250298
 31
0.0
  0
LINE
  5
AC11
330
1F
100
AcDbEntity
  8
0
 62
     0
 48
0.5
100
AcDbLine
 10
125.3889062774061
 20
1086.039623885192
 30
0.0
 11
124.888906277406
 21
1086.039623885192
 31
0.0
  0
LINE
  5
AC12
330
1F
100
AcDbEntity
  8
0
 62
     0
 48
0.5
100
AcDbLine
 10
125.448906277406
 20
1086.099623885192
 30
0.0
 11
125.3889062774061
 21
1086.039623885192
 31
0.0
  0
LINE
  5
AC13
330
1F
100
AcDbEntity
  8
0
 62
     0
 48
0.5
100
AcDbLine
 10
124.888906277406
 20
1082.973831036122
 30
0.0
 11
125.3889062774061
 21
1082.973831036122
 31
0.0
  0
LINE
  5
AC14
330
1F
100
AcDbEntity
  8
0
 62
     0
 48
0.5
100
AcDbLine
 10
125.3889062774061
 20
1082.959623885192
 30
0.0
 11
125.448906277406
 21
1082.899623885192
 31
0.0
  0
LINE
  5
AC15
330
1F
100
AcDbEntity
  8
0
 62
     0
 48
0.5
100
AcDbLine
 10
124.888906277406
 20
1086.406727460657
 30
0.0
 11
124.888906277406
 21
1082.606727460657
 31
0.0
  0
LINE
  5
AC16
330
1F
100
AcDbEntity
  8
0
 62
     0
 48
0.5
100
AcDbLine
 10
148.0264016512025
 20
1076.395072152382
 30
0.0
 11
133.3905723272456
 21
1084.845072152382
 31
0.0
  0
LINE
  5
AC17
330
1F
100
AcDbEntity
  8
0
 62
     0
 48
0.5
100
AcDbLine
 10
131.4905723272457
 20
1081.554175618002
 30
0.0
 11
146.1264016512028
 21
1073.104175618002
 31
0.0
  0
LINE
  5
AC18
330
1F
100
AcDbEntity
  8
0
 62
     0
 48
0.5
100
AcDbLine
 10
133.3905723272456
 20
1084.845072152382
 30
0.0
 11
131.4905723272457
 21
1081.554175618002
 31
0.0
  0
LINE
  5
AC19
330
1F
100
AcDbEntity
  8
Object
 62
     0
 48
0.5
100
AcDbLine
 10
131.7477520042181
 20
1083.599623885192
 30
0.0
 11
132.5477520042183
 21
1084.985264531247
 31
0.0
  0
LINE
  5
AC1A
330
1F
100
AcDbEntity
  8
Object
 62
     0
 48
0.5
100
AcDbLine
 10
132.5477520042183
 20
1084.985264531247
 30
0.0
 11
130.9889062774059
 21
1085.885264531247
 31
0.0
  0
LINE
  5
AC1B
330
1F
100
AcDbEntity
  8
Object
 62
     0
 48
0.5
100
AcDbLine
 10
130.9477520042182
 20
1082.213983239137
 30
0.0
 11
131.7477520042181
 21
1083.599623885192
 31
0.0
  0
ARC
  5
AC1C
330
1F
100
AcDbEntity
  8
Object
 62
     0
 48
0.5
100
AcDbCircle
 10
130.1889062774057
 20
1084.499623885192
 30
0.0
 40
1.6
100
AcDbArc
 50
270.0
 51
74.52884555605614
  0
CIRCLE
  5
AC1D
330
1F
100
AcDbEntity
  8
Object
 62
     0
 48
0.5
100
AcDbCircle
 10
130.1889062774057
 20
1084.499623885192
 30
0.0
 40
0.3500000000000001
  0
LINE
  5
AC1E
330
1F
100
AcDbEntity
  8
Object
 62
     0
 48
0.5
100
AcDbLine
 10
130.188906277406
 20
1086.099623885192
 30
0.0
 11
130.6157114014851
 21
1086.041647680748
 31
0.0
  0
CIRCLE
  5
AC1F
330
1F
100
AcDbEntity
  8
Object
 62
     0
 48
0.5
100
AcDbCircle
 10
130.1889062774057
 20
1084.499623885192
 30
0.0
 40
0.6000000000000001
  0
LINE
  5
AC20
330
1F
100
AcDbEntity
  8
Object
 62
     0
 48
0.5
100
AcDbLine
 10
130.9477520042182
 20
1082.213983239137
 30
0.0
 11
129.6960954129777
 21
1082.936627509022
 31
0.0
  0
LINE
  5
AC21
330
1F
100
AcDbEntity
  8
Object
 62
     0
 48
0.5
100
AcDbLine
 10
131.6405723272456
 20
1081.813983239137
 30
0.0
 11
130.9477520042182
 21
1082.213983239137
 31
0.0
  0
LINE
  5
AC22
330
1F
100
AcDbEntity
  8
Object
 62
     0
 48
0.5
100
AcDbLine
 10
132.5477520042183
 20
1084.985264531247
 30
0.0
 11
133.2405723272455
 21
1084.585264531247
 31
0.0
  0
LINE
  5
AC23
330
1F
100
AcDbEntity
  8
0
 62
     0
 48
0.5
100
AcDbLine
 10
146.2630041915811
 20
1073.14077815838
 30
0.0
 11
148.0630041915811
 21
1076.258469612004
 31
0.0
  0
LINE
  5
AC24
330
1F
100
AcDbEntity
  8
0
 62
     0
 48
0.5
100
AcDbLine
 10
148.0630041915811
 20
1076.258469612004
 30
0.0
 11
148.0264016512025
 21
1076.395072152382
 31
0.0
  0
LINE
  5
AC25
330
1F
100
AcDbEntity
  8
0
 62
     0
 48
0.5
100
AcDbLine
 10
146.2630041915811
 20
1073.14077815838
 30
0.0
 11
146.1264016512028
 21
1073.104175618002
 31
0.0
  0
LINE
  5
AC26
330
1F
100
AcDbEntity
  8
0
 62
     0
 48
0.5
100
AcDbLine
 10
273.2889062774061
 20
998.7377125023952
 30
0.0
 11
146.8630041915811
 21
1074.180008642922
 31
0.0
  0
LINE
  5
AC27
330
1F
100
AcDbEntity
  8
0
 62
     0
 48
0.5
100
AcDbLine
 10
147.4630041915811
 20
1075.219239127463
 30
0.0
 11
273.2889062774061
 21
1000.134981782289
 31
0.0
  0
LINE
  5
AC28
330
1F
100
AcDbEntity
  8
0
 62
     0
 48
0.5
100
AcDbLine
 10
398.3855390866171
 20
924.0886329793676
 30
0.0
 11
274.8889062774062
 21
997.7829423814521
 31
0.0
  0
LINE
  5
AC29
330
1F
100
AcDbEntity
  8
0
 62
     0
 48
0.5
100
AcDbLine
 10
274.8889062774062
 20
999.1802116613468
 30
0.0
 11
398.985539086617
 21
925.127863463909
 31
0.0
  0
LINE
  5
AC2A
330
1F
100
AcDbEntity
  8
0
 62
     0
 48
0.5
100
AcDbLine
 10
397.8221416269955
 20
922.9127999544481
 30
0.0
 11
412.4579709509525
 21
914.4627999544482
 31
0.0
  0
LINE
  5
AC2B
330
1F
100
AcDbEntity
  8
0
 62
     0
 48
0.5
100
AcDbLine
 10
414.3579709509523
 20
917.7536964888288
 30
0.0
 11
399.7221416269953
 21
926.203696488829
 31
0.0
  0
LINE
  5
AC2C
330
1F
100
AcDbEntity
  8
0
 62
     0
 48
0.5
100
AcDbLine
 10
399.585539086617
 20
926.1670939484503
 30
0.0
 11
397.785539086617
 21
923.0494024948262
 31
0.0
  0
LINE
  5
AC2D
330
1F
100
AcDbEntity
  8
0
 62
     0
 48
0.5
100
AcDbLine
 10
397.785539086617
 20
923.0494024948262
 30
0.0
 11
397.8221416269955
 21
922.9127999544481
 31
0.0
  0
LINE
  5
AC2E
330
1F
100
AcDbEntity
  8
0
 62
     0
 48
0.5
100
AcDbLine
 10
399.585539086617
 20
926.1670939484503
 30
0.0
 11
399.7221416269953
 21
926.203696488829
 31
0.0
  0
ARC
  5
AC2F
330
1F
100
AcDbEntity
  8
Object
 62
     0
 48
0.5
100
AcDbCircle
 10
415.6596370007924
 20
914.8082482216382
 30
0.0
 40
1.6
100
AcDbArc
 50
90.00000000000003
 51
254.5288455560561
  0
LINE
  5
AC30
330
1F
100
AcDbEntity
  8
Object
 62
     0
 48
0.5
100
AcDbLine
 10
414.2079709509525
 20
917.4938888676935
 30
0.0
 11
414.9007912739799
 21
917.0938888676939
 31
0.0
  0
LINE
  5
AC31
330
1F
100
AcDbEntity
  8
Object
 62
     0
 48
0.5
100
AcDbLine
 10
414.9007912739799
 20
917.0938888676939
 30
0.0
 11
414.10079127398
 21
915.7082482216388
 31
0.0
  0
LINE
  5
AC32
330
1F
100
AcDbEntity
  8
Object
 62
     0
 48
0.5
100
AcDbLine
 10
413.3007912739798
 20
914.3226075755833
 30
0.0
 11
414.8596370007921
 21
913.4226075755833
 31
0.0
  0
LINE
  5
AC33
330
1F
100
AcDbEntity
  8
Object
 62
     0
 48
0.5
100
AcDbLine
 10
413.3007912739798
 20
914.3226075755833
 30
0.0
 11
412.6079709509526
 21
914.7226075755831
 31
0.0
  0
LINE
  5
AC34
330
1F
100
AcDbEntity
  8
0
 62
     0
 48
0.5
100
AcDbLine
 10
412.4579709509525
 20
914.4627999544482
 30
0.0
 11
414.3579709509523
 21
917.7536964888288
 31
0.0
  0
LINE
  5
AC35
330
1F
100
AcDbEntity
  8
Object
 62
     0
 48
0.5
100
AcDbLine
 10
414.10079127398
 20
915.7082482216388
 30
0.0
 11
413.3007912739798
 21
914.3226075755833
 31
0.0
  0
LINE
  5
AC36
330
1F
100
AcDbEntity
  8
0
 62
     0
 48
0.5
100
AcDbLine
 10
420.4596370007919
 20
916.3482482216382
 30
0.0
 11
420.3996370007921
 21
916.4082482216386
 31
0.0
  0
LINE
  5
AC37
330
1F
100
AcDbEntity
  8
0
 62
     0
 48
0.5
100
AcDbLine
 10
420.959637000792
 20
916.3340410707084
 30
0.0
 11
420.459637000792
 21
916.3340410707084
 31
0.0
  0
LINE
  5
AC38
330
1F
100
AcDbEntity
  8
0
 62
     0
 48
0.5
100
AcDbLine
 10
420.3996370007921
 20
913.2082482216384
 30
0.0
 11
420.459637000792
 21
913.2682482216383
 31
0.0
  0
LINE
  5
AC39
330
1F
100
AcDbEntity
  8
0
 62
     0
 48
0.5
100
AcDbLine
 10
420.459637000792
 20
913.2682482216383
 30
0.0
 11
420.959637000792
 21
913.2682482216383
 31
0.0
  0
LINE
  5
AC3A
330
1F
100
AcDbEntity
  8
0
 62
     0
 48
0.5
100
AcDbLine
 10
420.9596370007921
 20
914.5486908054506
 30
0.0
 11
420.459637000792
 21
914.8843128565328
 31
0.0
  0
LINE
  5
AC3B
330
1F
100
AcDbEntity
  8
0
 62
     0
 48
0.5
100
AcDbLine
 10
420.4596370007919
 20
916.3482482216382
 30
0.0
 11
420.459637000792
 21
913.2682482216383
 31
0.0
  0
LINE
  5
AC3C
330
1F
100
AcDbEntity
  8
0
 62
     0
 48
0.5
100
AcDbLine
 10
420.959637000792
 20
913.2682482216383
 30
0.0
 11
420.959637000792
 21
916.3340410707084
 31
0.0
  0
LINE
  5
AC3D
330
1F
100
AcDbEntity
  8
Object
 62
     0
 48
0.5
100
AcDbLine
 10
415.6596370007921
 20
913.2082482216384
 30
0.0
 11
415.232831876713
 21
913.2662244260828
 31
0.0
  0
CIRCLE
  5
AC3E
330
1F
100
AcDbEntity
  8
Object
 62
     0
 48
0.5
100
AcDbCircle
 10
415.6596370007924
 20
914.8082482216382
 30
0.0
 40
0.3500000000000001
  0
LINE
  5
AC3F
330
1F
100
AcDbEntity
  8
Object
 62
     0
 48
0.5
100
AcDbLine
 10
414.9007912739799
 20
917.0938888676939
 30
0.0
 11
416.1524478652204
 21
916.3712445978081
 31
0.0
  0
CIRCLE
  5
AC40
330
1F
100
AcDbEntity
  8
Object
 62
     0
 48
0.5
100
AcDbCircle
 10
415.6596370007924
 20
914.8082482216382
 30
0.0
 40
0.6000000000000001
  0
LINE
  5
AC41
330
1F
100
AcDbEntity
  8
Object
 62
     0
 48
0.5
100
AcDbLine
 10
415.6596370007921
 20
913.2082482216384
 30
0.0
 11
420.3996370007921
 21
913.2082482216384
 31
0.0
  0
LINE
  5
AC42
330
1F
100
AcDbEntity
  8
Object
 62
     0
 48
0.5
100
AcDbLine
 10
420.3996370007921
 20
916.4082482216386
 30
0.0
 11
415.6596370007921
 21
916.4082482216382
 31
0.0
  0
LINE
  5
AC46
330
1F
100
AcDbEntity
  8
0
 62
     0
 48
0.5
100
AcDbLine
 10
411.8446157285512
 20
1234.981644759773
 30
0.0
 11
415.3087173436889
 21
1232.981644759772
 31
0.0
  0
LWPOLYLINE
  5
AC66
330
1F
100
AcDbEntity
  8
0
 48
0.3
100
AcDbPolyline
 90
        3
 70
     0
 43
0.0
 10
552.1314583880418
 20
1009.765378933425
 42
-0.3746788278168931
 10
552.2580364519467
 20
1009.730027475219
 10
552.962466833843
 20
1008.658282333126
  0
LWPOLYLINE
  5
AC67
330
1F
100
AcDbEntity
  8
0
 48
0.3
100
AcDbPolyline
 90
        2
 70
     0
 43
0.0
 10
552.4494496807501
 20
1018.504577680671
 10
552.1314583880418
 20
1017.880484628943
  0
LINE
  5
AC68
330
1F
100
AcDbEntity
  8
0
 62
     0
 48
0.5
100
AcDbLine
 10
552.1314583880418
 20
1017.880484628943
 30
0.0
 11
552.1314583880418
 21
1010.664207557066
 31
0.0
  0
LINE
  5
AC69
330
1F
100
AcDbEntity
  8
0
 48
0.3
100
AcDbLine
 10
552.1314583880418
 20
1010.664207557066
 30
0.0
 11
552.1744709398986
 21
1009.775102023959
 31
0.0
  0
ARC
  5
AC6A
330
1F
100
AcDbEntity
  8
0
 62
     0
 48
0.3
100
AcDbCircle
 10
572.9100082932277
 20
1021.159473695108
 30
0.0
 40
5.732699702968568
100
AcDbArc
 50
334.1450295252206
 51
25.85497047477932
  0
LINE
  5
AC6B
330
1F
100
AcDbEntity
  8
0
 62
     0
 48
0.3
100
AcDbLine
 10
578.6314583880423
 20
1021.060839684203
 30
0.0
 11
578.6314583880423
 21
1018.659473531663
 31
0.0
  0
LINE
  5
AC6C
330
1F
100
AcDbEntity
  8
0
 62
     0
 48
0.3
100
AcDbLine
 10
578.6314583880423
 20
1006.054443458035
 30
0.0
 11
578.6314583880423
 21
1021.197417177677
 31
0.0
  0
LINE
  5
AC6D
330
1F
100
AcDbEntity
  8
0
 62
     0
 48
0.5
100
AcDbLine
 10
570.1314583880421
 20
1023.15947353166
 30
0.0
 11
570.1314583880421
 21
1004.159473531659
 31
0.0
  0
LINE
  5
AC6E
330
1F
100
AcDbEntity
  8
0
 62
     0
 48
0.3
100
AcDbLine
 10
570.1314583880421
 20
1023.659473531663
 30
0.0
 11
570.1314583880421
 21
1003.659473531663
 31
0.0
  0
LWPOLYLINE
  5
AC6F
330
1F
100
AcDbEntity
  8
0
 48
0.3
100
AcDbPolyline
 90
        4
 70
     0
 43
0.0
 10
561.4494496807501
 20
1018.504577680671
 10
560.8923775178682
 20
1017.411262001475
 42
-0.5828351435596054
 10
560.7185270938084
 20
1017.403581147466
 10
560.0289583889462
 20
1018.504577680671
  0
LWPOLYLINE
  5
AC70
330
1F
100
AcDbEntity
  8
0
 48
0.3
100
AcDbPolyline
 90
        2
 70
     0
 43
0.0
 10
559.6917123566836
 20
1009.845988089135
 10
560.4630174931203
 20
1008.658282333126
  0
LINE
  5
AC71
330
1F
100
AcDbEntity
  8
0
 48
0.3
100
AcDbLine
 10
559.9892040348481
 20
1018.504577680671
 30
0.0
 11
560.5035801496145
 21
1008.658282333126
 31
0.0
  0
LINE
  5
AC72
330
1F
100
AcDbEntity
  8
0
 48
0.3
100
AcDbLine
 10
559.9494496807501
 20
1018.504577680671
 30
0.0
 11
560.0289583889462
 21
1018.504577680671
 31
0.0
  0
LWPOLYLINE
  5
AC73
330
1F
100
AcDbEntity
  8
0
 48
0.3
100
AcDbPolyline
 90
        4
 70
     0
 43
0.0
 10
554.5441428061088
 20
1008.658282333126
 10
555.0853702874799
 20
1009.720501073932
 42
-0.5755139880968628
 10
555.2580364519467
 20
1009.730027475219
 10
555.9624668338431
 20
1008.658282333126
  0
LINE
  5
AC74
330
1F
100
AcDbEntity
  8
0
 48
0.3
100
AcDbLine
 10
554.4630174931203
 20
1008.658282333126
 30
0.0
 11
554.5441428061088
 21
1008.658282333126
 31
0.0
  0
LINE
  5
AC75
330
1F
100
AcDbEntity
  8
0
 48
0.3
100
AcDbLine
 10
554.8076906416627
 20
1017.356758506038
 30
0.0
 11
555.1744709398986
 21
1009.775102023959
 31
0.0
  0
LINE
  5
AC76
330
1F
100
AcDbEntity
  8
0
 48
0.3
100
AcDbLine
 10
556.3018801301752
 20
1017.316871924662
 30
0.0
 11
556.6892993258537
 21
1009.924473296472
 31
0.0
  0
LWPOLYLINE
  5
AC77
330
1F
100
AcDbEntity
  8
0
 48
0.3
100
AcDbPolyline
 90
        2
 70
     0
 43
0.0
 10
556.3018801301752
 20
1017.316871924662
 10
555.5305749937385
 20
1018.504577680671
  0
LINE
  5
AC78
330
1F
100
AcDbEntity
  8
0
 48
0.3
100
AcDbLine
 10
555.4494496807501
 20
1018.504577680671
 30
0.0
 11
555.5305749937385
 21
1018.504577680671
 31
0.0
  0
LINE
  5
AC79
330
1F
100
AcDbEntity
  8
0
 48
0.3
100
AcDbLine
 10
556.9494496807501
 20
1018.504577680671
 30
0.0
 11
557.0289583889461
 21
1018.504577680671
 31
0.0
  0
LINE
  5
AC7A
330
1F
100
AcDbEntity
  8
0
 48
0.3
100
AcDbLine
 10
558.4494496807501
 20
1018.504577680671
 30
0.0
 11
558.5305749937385
 21
1018.504577680671
 31
0.0
  0
LWPOLYLINE
  5
AC7B
330
1F
100
AcDbEntity
  8
0
 48
0.3
100
AcDbPolyline
 90
        4
 70
     0
 43
0.0
 10
558.4494496807501
 20
1018.504577680671
 10
557.8923775178682
 20
1017.411262001475
 42
-0.5828351435596054
 10
557.7185270938084
 20
1017.403581147466
 10
557.0289583889461
 20
1018.504577680671
  0
LWPOLYLINE
  5
AC7C
330
1F
100
AcDbEntity
  8
0
 48
0.3
100
AcDbPolyline
 90
        2
 70
     0
 43
0.0
 10
559.3018801301752
 20
1017.316871924662
 10
558.5305749937385
 20
1018.504577680671
  0
LWPOLYLINE
  5
AC7D
330
1F
100
AcDbEntity
  8
0
 48
0.3
100
AcDbPolyline
 90
        2
 70
     0
 43
0.0
 10
556.9494496807501
 20
1018.504577680671
 10
556.3122320271539
 20
1017.25396761943
  0
LINE
  5
AC7E
330
1F
100
AcDbEntity
  8
0
 48
0.3
100
AcDbLine
 10
555.9624668338431
 20
1008.658282333126
 30
0.0
 11
556.0441428061087
 21
1008.658282333126
 31
0.0
  0
LWPOLYLINE
  5
AC7F
330
1F
100
AcDbEntity
  8
0
 48
0.3
100
AcDbPolyline
 90
        2
 70
     0
 43
0.0
 10
556.6917123566836
 20
1009.845988089135
 10
557.4630174931203
 20
1008.658282333126
  0
LWPOLYLINE
  5
AC80
330
1F
100
AcDbEntity
  8
0
 48
0.3
100
AcDbPolyline
 90
        4
 70
     0
 43
0.0
 10
557.5441428061087
 20
1008.658282333126
 10
558.0853702874799
 20
1009.720501073932
 42
-0.5755139880968628
 10
558.2580364519467
 20
1009.730027475219
 10
558.9624668338431
 20
1008.658282333126
  0
LINE
  5
AC81
330
1F
100
AcDbEntity
  8
0
 48
0.3
100
AcDbLine
 10
557.4630174931203
 20
1008.658282333126
 30
0.0
 11
557.5441428061087
 21
1008.658282333126
 31
0.0
  0
LINE
  5
AC82
330
1F
100
AcDbEntity
  8
0
 48
0.3
100
AcDbLine
 10
558.9624668338431
 20
1008.658282333126
 30
0.0
 11
559.0441428061088
 21
1008.658282333126
 31
0.0
  0
LINE
  5
AC83
330
1F
100
AcDbEntity
  8
0
 48
0.3
100
AcDbLine
 10
556.9892040348482
 20
1018.504577680671
 30
0.0
 11
557.5035801496145
 21
1008.658282333126
 31
0.0
  0
LINE
  5
AC84
330
1F
100
AcDbEntity
  8
0
 48
0.3
100
AcDbLine
 10
558.4900123372444
 20
1018.504577680671
 30
0.0
 11
559.0033048199759
 21
1008.658282333126
 31
0.0
  0
LINE
  5
AC85
330
1F
100
AcDbEntity
  8
0
 48
0.3
100
AcDbLine
 10
557.8076906416628
 20
1017.356758506038
 30
0.0
 11
558.1744709398987
 21
1009.775102023959
 31
0.0
  0
LINE
  5
AC86
330
1F
100
AcDbEntity
  8
0
 48
0.3
100
AcDbLine
 10
556.3042931610052
 20
1017.238386717325
 30
0.0
 11
556.6917123566836
 21
1009.845988089135
 31
0.0
  0
LINE
  5
AC87
330
1F
100
AcDbEntity
  8
0
 48
0.3
100
AcDbLine
 10
555.4900123372443
 20
1018.504577680671
 30
0.0
 11
556.0033048199759
 21
1008.658282333126
 31
0.0
  0
LWPOLYLINE
  5
AC88
330
1F
100
AcDbEntity
  8
0
 48
0.3
100
AcDbPolyline
 90
        2
 70
     0
 43
0.0
 10
556.0441428061087
 20
1008.658282333126
 10
556.6892993258537
 20
1009.924473296472
  0
LINE
  5
AC89
330
1F
100
AcDbEntity
  8
0
 48
0.3
100
AcDbLine
 10
559.3018801301752
 20
1017.316871924662
 30
0.0
 11
559.6892993258538
 21
1009.924473296472
 31
0.0
  0
LWPOLYLINE
  5
AC8A
330
1F
100
AcDbEntity
  8
0
 48
0.3
100
AcDbPolyline
 90
        2
 70
     0
 43
0.0
 10
559.9494496807501
 20
1018.504577680671
 10
559.312232027154
 20
1017.25396761943
  0
LINE
  5
AC8B
330
1F
100
AcDbEntity
  8
0
 48
0.3
100
AcDbLine
 10
559.3042931610052
 20
1017.238386717325
 30
0.0
 11
559.6917123566836
 21
1009.845988089135
 31
0.0
  0
LWPOLYLINE
  5
AC8C
330
1F
100
AcDbEntity
  8
0
 48
0.3
100
AcDbPolyline
 90
        2
 70
     0
 43
0.0
 10
559.0441428061088
 20
1008.658282333126
 10
559.6892993258538
 20
1009.924473296472
  0
LINE
  5
AC8D
330
1F
100
AcDbEntity
  8
0
 48
0.3
100
AcDbLine
 10
553.3018801301753
 20
1017.316871924662
 30
0.0
 11
553.6892993258537
 21
1009.924473296472
 31
0.0
  0
LINE
  5
AC8E
330
1F
100
AcDbEntity
  8
0
 48
0.3
100
AcDbLine
 10
552.4494496807501
 20
1018.504577680671
 30
0.0
 11
552.5305749937386
 21
1018.504577680671
 31
0.0
  0
LINE
  5
AC8F
330
1F
100
AcDbEntity
  8
0
 48
0.3
100
AcDbLine
 10
553.9494496807501
 20
1018.504577680671
 30
0.0
 11
554.0289583889461
 21
1018.504577680671
 31
0.0
  0
LWPOLYLINE
  5
AC90
330
1F
100
AcDbEntity
  8
0
 48
0.3
100
AcDbPolyline
 90
        2
 70
     0
 43
0.0
 10
553.3018801301753
 20
1017.316871924662
 10
552.5305749937386
 20
1018.504577680671
  0
LWPOLYLINE
  5
AC91
330
1F
100
AcDbEntity
  8
0
 48
0.3
100
AcDbPolyline
 90
        2
 70
     0
 43
0.0
 10
553.9494496807501
 20
1018.504577680671
 10
553.3122320271539
 20
1017.25396761943
  0
LINE
  5
AC92
330
1F
100
AcDbEntity
  8
0
 48
0.3
100
AcDbLine
 10
552.962466833843
 20
1008.658282333126
 30
0.0
 11
553.0441428061087
 21
1008.658282333126
 31
0.0
  0
LINE
  5
AC93
330
1F
100
AcDbEntity
  8
0
 48
0.3
100
AcDbLine
 10
552.4900123372443
 20
1018.504577680671
 30
0.0
 11
553.0033048199759
 21
1008.658282333126
 31
0.0
  0
LINE
  5
AC94
330
1F
100
AcDbEntity
  8
0
 48
0.3
100
AcDbLine
 10
553.3042931610053
 20
1017.238386717325
 30
0.0
 11
553.6917123566836
 21
1009.845988089135
 31
0.0
  0
LWPOLYLINE
  5
AC95
330
1F
100
AcDbEntity
  8
0
 48
0.3
100
AcDbPolyline
 90
        2
 70
     0
 43
0.0
 10
553.0441428061087
 20
1008.658282333126
 10
553.6892993258537
 20
1009.924473296472
  0
LWPOLYLINE
  5
AC96
330
1F
100
AcDbEntity
  8
0
 48
0.3
100
AcDbPolyline
 90
        4
 70
     0
 43
0.0
 10
555.4494496807501
 20
1018.504577680671
 10
554.8923775178682
 20
1017.411262001475
 42
-0.5828351435596054
 10
554.7185270938085
 20
1017.403581147466
 10
554.0289583889461
 20
1018.504577680671
  0
LWPOLYLINE
  5
AC97
330
1F
100
AcDbEntity
  8
0
 48
0.3
100
AcDbPolyline
 90
        2
 70
     0
 43
0.0
 10
553.6917123566836
 20
1009.845988089135
 10
554.4630174931203
 20
1008.658282333126
  0
LINE
  5
AC98
330
1F
100
AcDbEntity
  8
0
 48
0.3
100
AcDbLine
 10
553.9892040348481
 20
1018.504577680671
 30
0.0
 11
554.5035801496145
 21
1008.658282333126
 31
0.0
  0
LWPOLYLINE
  5
AC99
330
1F
100
AcDbEntity
  8
0
 48
0.3
100
AcDbPolyline
 90
        2
 70
     0
 43
0.0
 10
562.1314583880418
 20
1017.579298394446
 10
561.5305749937386
 20
1018.504577680671
  0
LINE
  5
AC9A
330
1F
100
AcDbEntity
  8
0
 48
0.3
100
AcDbLine
 10
561.4494496807501
 20
1018.504577680671
 30
0.0
 11
561.5305749937386
 21
1018.504577680671
 31
0.0
  0
LINE
  5
AC9B
330
1F
100
AcDbEntity
  8
0
 48
0.3
100
AcDbLine
 10
561.962466833843
 20
1008.658282333126
 30
0.0
 11
562.0441428061087
 21
1008.658282333126
 31
0.0
  0
LINE
  5
AC9C
330
1F
100
AcDbEntity
  8
0
 48
0.3
100
AcDbLine
 10
560.4630174931203
 20
1008.658282333126
 30
0.0
 11
560.5441428061087
 21
1008.658282333126
 31
0.0
  0
LWPOLYLINE
  5
AC9D
330
1F
100
AcDbEntity
  8
0
 48
0.3
100
AcDbPolyline
 90
        4
 70
     0
 43
0.0
 10
560.5441428061087
 20
1008.658282333126
 10
561.0853702874798
 20
1009.720501073932
 42
-0.5755139880968628
 10
561.2580364519467
 20
1009.730027475219
 10
561.962466833843
 20
1008.658282333126
  0
LINE
  5
AC9E
330
1F
100
AcDbEntity
  8
0
 48
0.3
100
AcDbLine
 10
561.4900123372443
 20
1018.504577680671
 30
0.0
 11
562.0033048199759
 21
1008.658282333126
 31
0.0
  0
LINE
  5
AC9F
330
1F
100
AcDbEntity
  8
0
 48
0.3
100
AcDbLine
 10
560.8076906416628
 20
1017.356758506038
 30
0.0
 11
561.1744709398987
 21
1009.775102023959
 31
0.0
  0
LWPOLYLINE
  5
ACA0
330
1F
100
AcDbEntity
  8
0
 48
0.3
100
AcDbPolyline
 90
        2
 70
     0
 43
0.0
 10
562.0441428061087
 20
1008.658282333126
 10
562.1314583880418
 20
1008.829648811522
  0
LINE
  5
ACA1
330
1F
100
AcDbEntity
  8
0
 62
     0
 48
0.3
100
AcDbLine
 10
578.0688693565227
 20
1018.659473531663
 30
0.0
 11
571.1314583880423
 21
1018.659473531663
 31
0.0
  0
LINE
  5
ACA2
330
1F
100
AcDbEntity
  8
0
 62
     0
 48
0.3
100
AcDbLine
 10
571.1314583880423
 20
1003.659473531663
 30
0.0
 11
578.0688693565227
 21
1003.659473531663
 31
0.0
  0
LINE
  5
ACA3
330
1F
100
AcDbEntity
  8
0
 62
     0
 48
0.3
100
AcDbLine
 10
578.0688693565227
 20
1008.659473531663
 30
0.0
 11
571.1314583880423
 21
1008.659473531663
 31
0.0
  0
LINE
  5
ACA4
330
1F
100
AcDbEntity
  8
0
 62
     0
 48
0.5
100
AcDbLine
 10
570.1314583880418
 20
1018.818878638556
 30
0.0
 11
570.131458388042
 21
1008.97258329101
 31
0.0
  0
LINE
  5
ACA5
330
1F
100
AcDbEntity
  8
0
100
AcDbLine
 10
571.1314583880423
 20
1008.659473531663
 30
0.0
 11
570.1314583880421
 21
1008.659473531663
 31
0.0
  0
LINE
  5
ACA6
330
1F
100
AcDbEntity
  8
0
100
AcDbLine
 10
571.1314583880423
 20
1003.659473531663
 30
0.0
 11
570.1314583880421
 21
1003.659473531663
 31
0.0
  0
LINE
  5
ACA7
330
1F
100
AcDbEntity
  8
0
100
AcDbLine
 10
571.1314583880423
 20
1018.659473531663
 30
0.0
 11
570.1314583880421
 21
1018.659473531663
 31
0.0
  0
ARC
  5
ACA8
330
1F
100
AcDbEntity
  8
0
 62
     0
 48
0.3
100
AcDbCircle
 10
573.1464084789101
 20
1006.159473531663
 30
0.0
 40
5.520925679459959
100
AcDbArc
 50
333.075075309887
 51
26.924924690113
  0
LINE
  5
ACA9
330
1F
100
AcDbEntity
  8
0
 62
     0
 48
0.3
100
AcDbLine
 10
578.6314583880423
 20
1013.659473531663
 30
0.0
 11
578.6314583880423
 21
1008.659473531663
 31
0.0
  0
ARC
  5
ACAA
330
1F
100
AcDbEntity
  8
0
 62
     0
 48
0.3
100
AcDbCircle
 10
556.1314583880423
 20
1013.659473531663
 30
0.0
 40
22.5
100
AcDbArc
 50
347.160411228867
 51
12.83958840690441
  0
LINE
  5
ACAB
330
1F
100
AcDbEntity
  8
0
 62
     0
 48
0.3
100
AcDbLine
 10
578.6314583880423
 20
1018.659473531663
 30
0.0
 11
578.6314583880423
 21
1013.659473531663
 31
0.0
  0
LINE
  5
ACAC
330
1F
100
AcDbEntity
  8
0
 62
     0
 48
0.3
100
AcDbLine
 10
578.0688693565227
 20
1023.659473531663
 30
0.0
 11
571.1314583880423
 21
1023.659473531663
 31
0.0
  0
LINE
  5
ACAD
330
1F
100
AcDbEntity
  8
0
100
AcDbLine
 10
571.1314583880423
 20
1023.659473531663
 30
0.0
 11
570.1314583880421
 21
1023.659473531663
 31
0.0
  0
LINE
  5
ACAE
330
1F
100
AcDbEntity
  8
0
 62
     0
 48
0.5
100
AcDbLine
 10
593.8246047270119
 20
1021.659473531663
 30
0.0
 11
593.8246047270119
 21
1005.659473531663
 31
0.0
  0
LINE
  5
ACAF
330
1F
100
AcDbEntity
  8
0
 62
     0
 48
0.5
100
AcDbLine
 10
584.8246047270119
 20
1023.659473531663
 30
0.0
 11
584.8246047270119
 21
1003.659473531663
 31
0.0
  0
LINE
  5
ACB0
330
1F
100
AcDbEntity
  8
0
 62
     0
 48
0.5
100
AcDbLine
 10
587.9758831589586
 20
1003.659473531663
 30
0.0
 11
591.824604727012
 21
1003.659473531663
 31
0.0
  0
LINE
  5
ACB1
330
1F
100
AcDbEntity
  8
0
 62
     0
 48
0.5
100
AcDbLine
 10
584.8246047270119
 20
1003.659473531663
 30
0.0
 11
587.9758831589586
 21
1003.659473531663
 31
0.0
  0
ARC
  5
ACB2
330
1F
100
AcDbEntity
  8
0
 62
     0
 48
0.5
100
AcDbCircle
 10
591.824604727012
 20
1005.659473531663
 30
0.0
 40
2.0
100
AcDbArc
 50
270.0
 51
0.0
  0
LINE
  5
ACB3
330
1F
100
AcDbEntity
  8
0
 62
     0
 48
0.5
100
AcDbLine
 10
584.8246047270119
 20
1023.659473531663
 30
0.0
 11
591.824604727012
 21
1023.659473531663
 31
0.0
  0
ARC
  5
ACB4
330
1F
100
AcDbEntity
  8
0
 62
     0
 48
0.5
100
AcDbCircle
 10
591.824604727012
 20
1021.659473531663
 30
0.0
 40
2.0
100
AcDbArc
 50
0.0
 51
90.0
  0
LINE
  5
ACB5
330
1F
100
AcDbEntity
  8
0
 62
     0
 48
0.5
100
AcDbLine
 10
570.1314583880418
 20
1063.228531822832
 30
0.0
 11
570.1314583880418
 21
965.041756250873
 31
0.0
  0
LINE
  5
ACB6
330
1F
100
AcDbEntity
  8
0
 62
     0
 48
0.5
100
AcDbLine
 10
562.1314583880418
 20
1063.228531822832
 30
0.0
 11
562.1314583880417
 21
965.041756250873
 31
0.0
  0
LINE
  5
ACB8
330
1F
100
AcDbEntity
  8
0
 62
     0
 48
0.5
100
AcDbLine
 10
483.9088072451152
 20
1033.807415423423
 30
0.0
 11
479.9088072451154
 21
1026.879212193147
 31
0.0
  0
LINE
  5
ACB9
330
1F
100
AcDbEntity
  8
0
 62
     0
 48
0.5
100
AcDbLine
 10
479.9088072451154
 20
1026.879212193147
 30
0.0
 11
487.908807245115
 21
1040.735618653698
 31
0.0
  0
LINE
  5
ACBB
330
1F
100
AcDbEntity
  8
Object
 62
     0
 48
0.5
100
AcDbLine
 10
479.9088072451155
 20
1026.879212193147
 30
0.0
 11
478.3499615183033
 21
1027.779212193147
 31
0.0
  0
LINE
  5
ACBD
330
1F
100
AcDbEntity
  8
0
 48
0.3
100
AcDbLine
 10
440.5278308501819
 20
1064.801282182912
 30
0.0
 11
436.0501459588966
 21
1056.016952221389
 31
0.0
  0
LWPOLYLINE
  5
ACBE
330
1F
100
AcDbEntity
  8
0
 48
0.3
100
AcDbPolyline
 90
        2
 70
     0
 43
0.0
 10
435.9409007037084
 20
1057.45146947478
 10
436.0150176679276
 20
1056.037233549636
  0
LWPOLYLINE
  5
ACBF
330
1F
100
AcDbEntity
  8
0
 48
0.3
100
AcDbPolyline
 90
        4
 70
     0
 43
0.0
 10
441.7924406752986
 20
1064.071159359961
 10
440.7633441909036
 20
1063.402856288861
 42
-0.5828351435596054
 10
440.6089448802049
 20
1063.483129686198
 10
440.5622591307419
 20
1064.781405005863
  0
LINE
  5
ACC0
330
1F
100
AcDbEntity
  8
Object
 62
     0
 48
0.5
100
AcDbLine
 10
401.5853887462922
 20
1087.950803306154
 30
0.0
 11
423.2360238409028
 21
1075.450803306153
 31
0.0
  0
LINE
  5
ACC1
330
1F
100
AcDbEntity
  8
Object
 62
     0
 48
0.5
100
AcDbLine
 10
417.7360238409027
 20
1065.924523864524
 30
0.0
 11
396.0853887462917
 21
1078.424523864524
 31
0.0
  0
LINE
  5
ACC3
330
1F
100
AcDbEntity
  8
Object
 62
     0
 48
0.5
100
AcDbLine
 10
396.0853887462917
 20
1078.424523864524
 30
0.0
 11
401.5853887462922
 21
1087.950803306154
 31
0.0
  0
LINE
  5
ACC5
330
1F
100
AcDbEntity
  8
Object
 62
     0
 48
0.5
100
AcDbLine
 10
432.8962778787472
 20
1072.182854113723
 30
0.0
 11
429.1462778787472
 21
1065.687663585339
 31
0.0
  0
LINE
  5
ACC8
330
1F
100
AcDbEntity
  8
Object
 62
     0
 48
0.5
100
AcDbLine
 10
421.816150859825
 20
1062.991511162632
 30
0.0
 11
417.4860238409028
 21
1065.491511162632
 31
0.0
  0
LWPOLYLINE
  5
ACCA
330
1F
100
AcDbEntity
  8
0
 48
0.3
100
AcDbPolyline
 90
        4
 70
     0
 43
0.0
 10
433.9757248943835
 20
1068.511506685133
 10
432.9466284099885
 20
1067.843203614034
 42
-0.5828351435596054
 10
432.7922290992896
 20
1067.923477011369
 10
432.7455433498267
 20
1069.221752331035
  0
LWPOLYLINE
  5
ACCB
330
1F
100
AcDbEntity
  8
0
 48
0.3
100
AcDbPolyline
 90
        4
 70
     0
 43
0.0
 10
428.2685584689507
 20
1060.437018218315
 10
429.2683845874476
 20
1061.086312891543
 42
-0.5755139880968628
 10
429.4226810728932
 20
1061.008229914831
 10
429.4968631077663
 20
1059.727856204448
  0
LINE
  5
ACCC
330
1F
100
AcDbEntity
  8
0
 62
     0
 48
0.5
100
AcDbLine
 10
431.4621628057864
 20
1069.698893943454
 30
0.0
 11
426.8689300831251
 21
1061.743181496817
 31
0.0
  0
LINE
  5
ACCD
330
1F
100
AcDbEntity
  8
0
 48
0.3
100
AcDbLine
 10
431.5220222291872
 20
1068.556708103496
 30
0.0
 11
428.1613377804638
 21
1061.960993498743
 31
0.0
  0
LWPOLYLINE
  5
ACCE
330
1F
100
AcDbEntity
  8
0
 48
0.3
100
AcDbPolyline
 90
        2
 70
     0
 43
0.0
 10
431.5220222291872
 20
1068.556708103496
 10
431.4621628057864
 20
1069.698893943454
  0
LINE
  5
ACCF
330
1F
100
AcDbEntity
  8
0
 48
0.3
100
AcDbLine
 10
432.6766867887068
 20
1069.261506685133
 30
0.0
 11
432.7455433498267
 21
1069.221752331035
 31
0.0
  0
LWPOLYLINE
  5
ACD0
330
1F
100
AcDbEntity
  8
0
 48
0.3
100
AcDbPolyline
 90
        2
 70
     0
 43
0.0
 10
432.6766867887068
 20
1069.261506685133
 10
431.4995350823323
 20
1068.497055428668
  0
LINE
  5
ACD1
330
1F
100
AcDbEntity
  8
0
 48
0.3
100
AcDbLine
 10
426.8987868964131
 20
1061.227856204448
 30
0.0
 11
426.9695203632741
 21
1061.187018218315
 31
0.0
  0
LWPOLYLINE
  5
ACD2
330
1F
100
AcDbEntity
  8
0
 48
0.3
100
AcDbPolyline
 90
        2
 70
     0
 43
0.0
 10
426.8689300831251
 20
1061.743181496817
 10
426.8987868964131
 20
1061.227856204448
  0
LWPOLYLINE
  5
ACD3
330
1F
100
AcDbEntity
  8
0
 48
0.3
100
AcDbPolyline
 90
        2
 70
     0
 43
0.0
 10
428.1241849227935
 20
1061.891816799952
 10
428.1983018870127
 20
1060.477580874809
  0
LINE
  5
ACD4
330
1F
100
AcDbEntity
  8
0
 48
0.3
100
AcDbLine
 10
428.1983018870127
 20
1060.477580874809
 30
0.0
 11
428.2685584689507
 21
1060.437018218315
 31
0.0
  0
LINE
  5
ACD5
330
1F
100
AcDbEntity
  8
0
 48
0.3
100
AcDbLine
 10
429.7642644000283
 20
1066.758047638591
 30
0.0
 11
426.9341536298433
 21
1061.207437211381
 31
0.0
  0
LINE
  5
ACD6
330
1F
100
AcDbEntity
  8
0
 48
0.3
100
AcDbLine
 10
432.7111150692667
 20
1069.241629508084
 30
0.0
 11
428.2334301779815
 21
1060.457299546562
 31
0.0
  0
LINE
  5
ACD7
330
1F
100
AcDbEntity
  8
0
 48
0.3
100
AcDbLine
 10
432.8460356761088
 20
1067.838345640493
 30
0.0
 11
429.3728484909492
 21
1061.089048375128
 31
0.0
  0
LINE
  5
ACD8
330
1F
100
AcDbEntity
  8
0
 48
0.3
100
AcDbLine
 10
431.4848693715173
 20
1068.487531404705
 30
0.0
 11
428.1241849227935
 21
1061.891816799952
 31
0.0
  0
LWPOLYLINE
  5
ACD9
330
1F
100
AcDbEntity
  8
0
 48
0.3
100
AcDbPolyline
 90
        2
 70
     0
 43
0.0
 10
426.9695203632741
 20
1061.187018218315
 10
428.1613377804638
 20
1061.960993498743
  0
LINE
  5
ACDB
330
1F
100
AcDbEntity
  8
Object
 62
     0
 48
0.5
100
AcDbLine
 10
423.316150859825
 20
1065.589587373986
 30
0.0
 11
427.6462778787474
 21
1063.089587373986
 31
0.0
  0
LINE
  5
ACDC
330
1F
100
AcDbEntity
  8
Object
 62
     0
 48
0.5
100
AcDbLine
 10
426.3161508598249
 20
1070.785739796692
 30
0.0
 11
430.6462778787472
 21
1068.285739796692
 31
0.0
  0
LINE
  5
ACDD
330
1F
100
AcDbEntity
  8
Object
 62
     0
 48
0.5
100
AcDbLine
 10
425.3962778787474
 20
1059.192473056956
 30
0.0
 11
421.066150859825
 21
1061.692473056956
 31
0.0
  0
LINE
  5
ACDF
330
1F
100
AcDbEntity
  8
Object
 62
     0
 48
0.5
100
AcDbLine
 10
429.1462778787472
 20
1065.687663585339
 30
0.0
 11
425.3962778787474
 21
1059.192473056956
 31
0.0
  0
LWPOLYLINE
  5
ACE0
330
1F
100
AcDbEntity
  8
0
 48
0.3
100
AcDbPolyline
 90
        4
 70
     0
 43
0.0
 10
439.1943644639455
 20
1065.571159359961
 10
438.1652679795502
 20
1064.902856288862
 42
-0.5828351435596054
 10
438.0108686688515
 20
1064.983129686198
 10
437.9641829193885
 20
1066.281405005863
  0
LWPOLYLINE
  5
ACE1
330
1F
100
AcDbEntity
  8
0
 48
0.3
100
AcDbPolyline
 90
        4
 70
     0
 43
0.0
 10
433.4871980385123
 20
1057.496670893142
 10
434.4870241570093
 20
1058.145965566372
 42
-0.5755139880968628
 10
434.6413206424549
 20
1058.067882589659
 10
434.715502677328
 20
1056.787508879275
  0
LINE
  5
ACE2
330
1F
100
AcDbEntity
  8
0
 48
0.3
100
AcDbLine
 10
438.0646752456709
 20
1064.897998315321
 30
0.0
 11
434.591488060511
 21
1058.148701049955
 31
0.0
  0
LINE
  5
ACE3
330
1F
100
AcDbEntity
  8
0
 48
0.3
100
AcDbLine
 10
437.9297546388285
 20
1066.301282182912
 30
0.0
 11
433.4520697475432
 21
1057.516952221389
 31
0.0
  0
LINE
  5
ACE4
330
1F
100
AcDbEntity
  8
0
 48
0.3
100
AcDbLine
 10
433.4169414565742
 20
1057.537233549636
 30
0.0
 11
433.4871980385123
 21
1057.496670893142
 31
0.0
  0
LWPOLYLINE
  5
ACE5
330
1F
100
AcDbEntity
  8
0
 48
0.3
100
AcDbPolyline
 90
        2
 70
     0
 43
0.0
 10
433.3428244923552
 20
1058.95146947478
 10
433.4169414565744
 20
1057.537233549636
  0
LINE
  5
ACE6
330
1F
100
AcDbEntity
  8
0
 48
0.3
100
AcDbLine
 10
437.8953263582686
 20
1066.321159359961
 30
0.0
 11
437.9641829193885
 21
1066.281405005863
 31
0.0
  0
LWPOLYLINE
  5
ACE7
330
1F
100
AcDbEntity
  8
0
 48
0.3
100
AcDbPolyline
 90
        2
 70
     0
 43
0.0
 10
437.8953263582686
 20
1066.321159359961
 10
436.7181746518938
 20
1065.556708103496
  0
LWPOLYLINE
  5
ACE8
330
1F
100
AcDbEntity
  8
0
 48
0.3
100
AcDbPolyline
 90
        2
 70
     0
 43
0.0
 10
434.7862361441889
 20
1056.746670893142
 10
435.9780535613785
 20
1057.52064617357
  0
LINE
  5
ACE9
330
1F
100
AcDbEntity
  8
0
 48
0.3
100
AcDbLine
 10
439.3015851524324
 20
1064.047184079533
 30
0.0
 11
435.9409007037084
 21
1057.45146947478
 31
0.0
  0
LINE
  5
ACEA
330
1F
100
AcDbEntity
  8
0
 48
0.3
100
AcDbLine
 10
439.2294927549142
 20
1065.550878031714
 30
0.0
 11
434.7508694107585
 21
1056.767089886208
 31
0.0
  0
LINE
  5
ACEB
330
1F
100
AcDbEntity
  8
0
 48
0.3
100
AcDbLine
 10
434.715502677328
 20
1056.787508879275
 30
0.0
 11
434.7862361441889
 21
1056.746670893142
 31
0.0
  0
LWPOLYLINE
  5
ACEC
330
1F
100
AcDbEntity
  8
0
 48
0.3
100
AcDbPolyline
 90
        2
 70
     0
 43
0.0
 10
440.493402569622
 20
1064.821159359961
 10
439.3162508632472
 20
1064.056708103496
  0
LWPOLYLINE
  5
ACED
330
1F
100
AcDbEntity
  8
0
 48
0.3
100
AcDbPolyline
 90
        2
 70
     0
 43
0.0
 10
439.3387380101024
 20
1064.116360778323
 10
439.2646210458833
 20
1065.530596703466
  0
LINE
  5
ACEE
330
1F
100
AcDbEntity
  8
0
 48
0.3
100
AcDbLine
 10
440.493402569622
 20
1064.821159359961
 30
0.0
 11
440.5622591307419
 21
1064.781405005863
 31
0.0
  0
LINE
  5
ACEF
330
1F
100
AcDbEntity
  8
0
 48
0.3
100
AcDbLine
 10
439.1943644639455
 20
1065.571159359961
 30
0.0
 11
439.2646210458833
 21
1065.530596703466
 31
0.0
  0
LINE
  5
ACF0
330
1F
100
AcDbEntity
  8
0
 48
0.3
100
AcDbLine
 10
439.3387380101024
 20
1064.116360778323
 30
0.0
 11
435.9780535613785
 21
1057.52064617357
 31
0.0
  0
LINE
  5
ACF1
330
1F
100
AcDbEntity
  8
0
 48
0.3
100
AcDbLine
 10
434.1200984405404
 20
1067.056708103496
 30
0.0
 11
430.7594139918169
 21
1060.460993498743
 31
0.0
  0
LWPOLYLINE
  5
ACF2
330
1F
100
AcDbEntity
  8
0
 48
0.3
100
AcDbPolyline
 90
        2
 70
     0
 43
0.0
 10
436.7181746518938
 20
1065.556708103496
 10
436.6440576876748
 20
1066.970944028639
  0
LINE
  5
ACF3
330
1F
100
AcDbEntity
  8
0
 48
0.3
100
AcDbLine
 10
436.5738011057369
 20
1067.011506685133
 30
0.0
 11
436.6440576876748
 21
1066.970944028639
 31
0.0
  0
LINE
  5
ACF4
330
1F
100
AcDbEntity
  8
0
 48
0.3
100
AcDbLine
 10
433.9757248943835
 20
1068.511506685133
 30
0.0
 11
434.0459814763214
 21
1068.470944028639
 31
0.0
  0
LINE
  5
ACF5
330
1F
100
AcDbEntity
  8
0
 48
0.3
100
AcDbLine
 10
435.2747630000601
 20
1067.761506685133
 30
0.0
 11
435.34361956118
 21
1067.721752331035
 31
0.0
  0
LWPOLYLINE
  5
ACF6
330
1F
100
AcDbEntity
  8
0
 48
0.3
100
AcDbPolyline
 90
        2
 70
     0
 43
0.0
 10
434.1200984405404
 20
1067.056708103496
 10
434.0459814763214
 20
1068.470944028639
  0
LWPOLYLINE
  5
ACF7
330
1F
100
AcDbEntity
  8
0
 48
0.3
100
AcDbPolyline
 90
        2
 70
     0
 43
0.0
 10
435.2747630000601
 20
1067.761506685133
 10
434.0976112936855
 20
1066.997055428668
  0
LWPOLYLINE
  5
ACF8
330
1F
100
AcDbEntity
  8
0
 48
0.3
100
AcDbPolyline
 90
        4
 70
     0
 43
0.0
 10
436.5738011057369
 20
1067.011506685133
 10
435.5447046213419
 20
1066.343203614034
 42
-0.5828351435596054
 10
435.3903053106428
 20
1066.42347701137
 10
435.34361956118
 20
1067.721752331035
  0
LWPOLYLINE
  5
ACF9
330
1F
100
AcDbEntity
  8
0
 48
0.3
100
AcDbPolyline
 90
        4
 70
     0
 43
0.0
 10
430.8666346803038
 20
1058.937018218315
 10
431.866460798801
 20
1059.586312891543
 42
-0.5755139880968628
 10
432.0207572842464
 20
1059.508229914831
 10
432.0949393191199
 20
1058.227856204448
  0
LINE
  5
ACFA
330
1F
100
AcDbEntity
  8
0
 48
0.3
100
AcDbLine
 10
429.4968631077663
 20
1059.727856204448
 30
0.0
 11
429.5675965746272
 21
1059.687018218315
 31
0.0
  0
LWPOLYLINE
  5
ACFB
330
1F
100
AcDbEntity
  8
0
 48
0.3
100
AcDbPolyline
 90
        2
 70
     0
 43
0.0
 10
430.7222611341469
 20
1060.391816799952
 10
430.7963780983659
 20
1058.977580874808
  0
LINE
  5
ACFC
330
1F
100
AcDbEntity
  8
0
 48
0.3
100
AcDbLine
 10
430.7963780983659
 20
1058.977580874808
 30
0.0
 11
430.8666346803038
 21
1058.937018218315
 31
0.0
  0
LINE
  5
ACFD
330
1F
100
AcDbEntity
  8
0
 48
0.3
100
AcDbLine
 10
432.0949393191199
 20
1058.227856204448
 30
0.0
 11
432.1656727859806
 21
1058.187018218315
 31
0.0
  0
LINE
  5
ACFE
330
1F
100
AcDbEntity
  8
0
 48
0.3
100
AcDbLine
 10
434.0108531853525
 20
1068.491225356886
 30
0.0
 11
429.532229841197
 21
1059.707437211381
 31
0.0
  0
LINE
  5
ACFF
330
1F
100
AcDbEntity
  8
0
 48
0.3
100
AcDbLine
 10
435.3091912806201
 20
1067.741629508084
 30
0.0
 11
430.8315063893351
 21
1058.957299546562
 31
0.0
  0
LINE
  5
AD00
330
1F
100
AcDbEntity
  8
0
 48
0.3
100
AcDbLine
 10
436.6089293967056
 20
1066.991225356886
 30
0.0
 11
432.1303060525501
 21
1058.207437211381
 31
0.0
  0
LINE
  5
AD01
330
1F
100
AcDbEntity
  8
0
 48
0.3
100
AcDbLine
 10
435.4441118874624
 20
1066.338345640493
 30
0.0
 11
431.9709247023024
 21
1059.589048375128
 31
0.0
  0
LINE
  5
AD02
330
1F
100
AcDbEntity
  8
0
 48
0.3
100
AcDbLine
 10
434.0829455828707
 20
1066.987531404705
 30
0.0
 11
430.7222611341469
 21
1060.391816799952
 31
0.0
  0
LWPOLYLINE
  5
AD03
330
1F
100
AcDbEntity
  8
0
 48
0.3
100
AcDbPolyline
 90
        2
 70
     0
 43
0.0
 10
429.5675965746272
 20
1059.687018218315
 10
430.7594139918169
 20
1060.460993498743
  0
LINE
  5
AD04
330
1F
100
AcDbEntity
  8
0
 48
0.3
100
AcDbLine
 10
436.7181746518938
 20
1065.556708103496
 30
0.0
 11
433.3574902031703
 21
1058.960993498742
 31
0.0
  0
LWPOLYLINE
  5
AD05
330
1F
100
AcDbEntity
  8
0
 48
0.3
100
AcDbPolyline
 90
        2
 70
     0
 43
0.0
 10
432.1656727859806
 20
1058.187018218315
 10
433.3574902031703
 20
1058.960993498742
  0
LINE
  5
AD06
330
1F
100
AcDbEntity
  8
Object
 62
     0
 48
0.5
100
AcDbLine
 10
423.4860238409027
 20
1075.883816008046
 30
0.0
 11
427.816150859825
 21
1073.383816008046
 31
0.0
  0
LINE
  5
AD07
330
1F
100
AcDbEntity
  8
Object
 62
     0
 48
0.5
100
AcDbLine
 10
428.566150859825
 20
1074.682854113722
 30
0.0
 11
432.8962778787472
 21
1072.182854113723
 31
0.0
  0
LINE
  5
AD08
330
1F
100
AcDbEntity
  8
0
 48
0.3
100
AcDbLine
 10
447.0237213889743
 20
1061.050878031714
 30
0.0
 11
442.5450980448186
 21
1052.267089886208
 31
0.0
  0
LWPOLYLINE
  5
AD09
330
1F
100
AcDbEntity
  8
0
 48
0.3
100
AcDbPolyline
 90
        4
 70
     0
 43
0.0
 10
441.2814266725722
 20
1052.996670893142
 10
442.2812527910691
 20
1053.645965566372
 42
-0.5755139880968628
 10
442.4355492765148
 20
1053.567882589659
 10
442.5097313113878
 20
1052.287508879275
  0
LWPOLYLINE
  5
AD0A
330
1F
100
AcDbEntity
  8
0
 48
0.3
100
AcDbPolyline
 90
        2
 70
     0
 43
0.0
 10
447.1329666441622
 20
1059.616360778323
 10
447.0588496799432
 20
1061.030596703466
  0
LWPOLYLINE
  5
AD0B
330
1F
100
AcDbEntity
  8
0
 48
0.3
100
AcDbPolyline
 90
        2
 70
     0
 43
0.0
 10
439.9823885668957
 20
1053.746670893142
 10
441.1742059840851
 20
1054.52064617357
  0
LWPOLYLINE
  5
AD0C
330
1F
100
AcDbEntity
  8
0
 48
0.3
100
AcDbPolyline
 90
        2
 70
     0
 43
0.0
 10
437.3843123555423
 20
1055.246670893142
 10
438.5761297727317
 20
1056.02064617357
  0
LINE
  5
AD0D
330
1F
100
AcDbEntity
  8
0
 48
0.3
100
AcDbLine
 10
441.8275689662677
 20
1064.050878031714
 30
0.0
 11
437.3489456221118
 21
1055.267089886208
 31
0.0
  0
LINE
  5
AD0E
330
1F
100
AcDbEntity
  8
0
 48
0.3
100
AcDbLine
 10
444.4977375751391
 20
1061.047184079533
 30
0.0
 11
441.1370531264151
 21
1054.451469474779
 31
0.0
  0
LINE
  5
AD0F
330
1F
100
AcDbEntity
  8
0
 48
0.3
100
AcDbLine
 10
445.8589038797308
 20
1060.397998315321
 30
0.0
 11
442.3857166945708
 21
1053.648701049955
 31
0.0
  0
LINE
  5
AD10
330
1F
100
AcDbEntity
  8
0
 48
0.3
100
AcDbLine
 10
445.7239832728885
 20
1061.801282182912
 30
0.0
 11
441.246298381603
 21
1053.016952221389
 31
0.0
  0
LINE
  5
AD11
330
1F
100
AcDbEntity
  8
0
 48
0.3
100
AcDbLine
 10
441.8996613637855
 20
1062.547184079533
 30
0.0
 11
438.5389769150619
 21
1055.95146947478
 31
0.0
  0
LINE
  5
AD12
330
1F
100
AcDbEntity
  8
0
 48
0.3
100
AcDbLine
 10
443.2608276683774
 20
1061.897998315321
 30
0.0
 11
439.7876404832175
 21
1055.148701049955
 31
0.0
  0
LINE
  5
AD13
330
1F
100
AcDbEntity
  8
0
 48
0.3
100
AcDbLine
 10
444.4256451776209
 20
1062.550878031714
 30
0.0
 11
439.9470218334649
 21
1053.767089886209
 31
0.0
  0
LINE
  5
AD14
330
1F
100
AcDbEntity
  8
0
 48
0.3
100
AcDbLine
 10
443.1259070615351
 20
1063.301282182912
 30
0.0
 11
438.6482221702499
 21
1054.516952221389
 31
0.0
  0
LWPOLYLINE
  5
AD15
330
1F
100
AcDbEntity
  8
0
 48
0.3
100
AcDbPolyline
 90
        2
 70
     0
 43
0.0
 10
441.1370531264151
 20
1054.451469474779
 10
441.2111700906343
 20
1053.037233549636
  0
LINE
  5
AD16
330
1F
100
AcDbEntity
  8
0
 48
0.3
100
AcDbLine
 10
439.9116551000345
 20
1053.787508879275
 30
0.0
 11
439.9823885668957
 21
1053.746670893142
 31
0.0
  0
LINE
  5
AD17
330
1F
100
AcDbEntity
  8
0
 48
0.3
100
AcDbLine
 10
438.6130938792807
 20
1054.537233549636
 30
0.0
 11
438.6833504612191
 21
1054.496670893142
 31
0.0
  0
LWPOLYLINE
  5
AD18
330
1F
100
AcDbEntity
  8
0
 48
0.3
100
AcDbPolyline
 90
        4
 70
     0
 43
0.0
 10
438.6833504612191
 20
1054.496670893142
 10
439.683176579716
 20
1055.145965566371
 42
-0.5755139880968628
 10
439.8374730651616
 20
1055.067882589659
 10
439.9116551000345
 20
1053.787508879275
  0
LWPOLYLINE
  5
AD19
330
1F
100
AcDbEntity
  8
0
 48
0.3
100
AcDbPolyline
 90
        2
 70
     0
 43
0.0
 10
438.5389769150619
 20
1055.95146947478
 10
438.613093879281
 20
1054.537233549636
  0
LINE
  5
AD1A
330
1F
100
AcDbEntity
  8
0
 48
0.3
100
AcDbLine
 10
437.3135788886811
 20
1055.287508879275
 30
0.0
 11
437.3843123555423
 21
1055.246670893142
 31
0.0
  0
LINE
  5
AD1B
330
1F
100
AcDbEntity
  8
0
 48
0.3
100
AcDbLine
 10
441.2111700906343
 20
1053.037233549636
 30
0.0
 11
441.2814266725722
 21
1052.996670893142
 31
0.0
  0
LWPOLYLINE
  5
AD1C
330
1F
100
AcDbEntity
  8
0
 48
0.3
100
AcDbPolyline
 90
        4
 70
     0
 43
0.0
 10
446.9885930980053
 20
1061.071159359961
 10
445.95949661361
 20
1060.402856288862
 42
-0.5828351435596054
 10
445.8050973029116
 20
1060.483129686198
 10
445.7584115534484
 20
1061.781405005863
  0
LWPOLYLINE
  5
AD1D
330
1F
100
AcDbEntity
  8
0
 48
0.3
100
AcDbPolyline
 90
        2
 70
     0
 43
0.0
 10
445.6895549923287
 20
1061.821159359961
 10
444.5124032859537
 20
1061.056708103496
  0
LWPOLYLINE
  5
AD1E
330
1F
100
AcDbEntity
  8
0
 48
0.3
100
AcDbPolyline
 90
        2
 70
     0
 43
0.0
 10
443.0914787809752
 20
1063.321159359961
 10
441.9143270746003
 20
1062.556708103496
  0
LWPOLYLINE
  5
AD1F
330
1F
100
AcDbEntity
  8
0
 48
0.3
100
AcDbPolyline
 90
        2
 70
     0
 43
0.0
 10
444.5348904328088
 20
1061.116360778323
 10
444.4607734685899
 20
1062.530596703467
  0
LWPOLYLINE
  5
AD20
330
1F
100
AcDbEntity
  8
0
 48
0.3
100
AcDbPolyline
 90
        4
 70
     0
 43
0.0
 10
444.3905168866519
 20
1062.571159359961
 10
443.3614204022569
 20
1061.902856288862
 42
-0.5828351435596054
 10
443.2070210915581
 20
1061.983129686198
 10
443.1603353420951
 20
1063.281405005863
  0
LINE
  5
AD21
330
1F
100
AcDbEntity
  8
0
 48
0.3
100
AcDbLine
 10
445.6895549923287
 20
1061.821159359961
 30
0.0
 11
445.7584115534484
 21
1061.781405005863
 31
0.0
  0
LINE
  5
AD22
330
1F
100
AcDbEntity
  8
0
 48
0.3
100
AcDbLine
 10
444.3905168866519
 20
1062.571159359961
 30
0.0
 11
444.4607734685899
 21
1062.530596703467
 31
0.0
  0
LINE
  5
AD23
330
1F
100
AcDbEntity
  8
0
 48
0.3
100
AcDbLine
 10
443.0914787809752
 20
1063.321159359961
 30
0.0
 11
443.1603353420951
 21
1063.281405005863
 31
0.0
  0
LINE
  5
AD24
330
1F
100
AcDbEntity
  8
0
 48
0.3
100
AcDbLine
 10
441.7924406752986
 20
1064.071159359961
 30
0.0
 11
441.8626972572365
 21
1064.030596703466
 31
0.0
  0
LWPOLYLINE
  5
AD25
330
1F
100
AcDbEntity
  8
0
 48
0.3
100
AcDbPolyline
 90
        2
 70
     0
 43
0.0
 10
441.9368142214557
 20
1062.616360778323
 10
441.8626972572365
 20
1064.030596703466
  0
LINE
  5
AD26
330
1F
100
AcDbEntity
  8
0
 48
0.3
100
AcDbLine
 10
444.5348904328088
 20
1061.116360778323
 30
0.0
 11
441.1742059840851
 21
1054.52064617357
 31
0.0
  0
LINE
  5
AD27
330
1F
100
AcDbEntity
  8
0
 48
0.3
100
AcDbLine
 10
441.9368142214557
 20
1062.616360778323
 30
0.0
 11
438.5761297727317
 21
1056.02064617357
 31
0.0
  0
LINE
  5
AD28
330
1F
100
AcDbEntity
  8
0
 48
0.3
100
AcDbLine
 10
446.9885930980053
 20
1061.071159359961
 30
0.0
 11
447.0588496799432
 21
1061.030596703466
 31
0.0
  0
LINE
  5
AD29
330
1F
100
AcDbEntity
  8
0
 48
0.3
100
AcDbLine
 10
440.662751457024
 20
1063.397998315321
 30
0.0
 11
437.1895642718641
 21
1056.648701049955
 31
0.0
  0
LINE
  5
AD2A
330
1F
100
AcDbEntity
  8
0
 48
0.3
100
AcDbLine
 10
436.0150176679276
 20
1056.037233549636
 30
0.0
 11
436.0852742498654
 21
1055.996670893142
 31
0.0
  0
LWPOLYLINE
  5
AD2B
330
1F
100
AcDbEntity
  8
0
 48
0.3
100
AcDbPolyline
 90
        4
 70
     0
 43
0.0
 10
436.0852742498654
 20
1055.996670893142
 10
437.0851003683626
 20
1056.645965566372
 42
-0.5755139880968628
 10
437.2393968538081
 20
1056.567882589658
 10
437.3135788886811
 20
1055.287508879275
  0
LINE
  5
AD2C
330
1F
100
AcDbEntity
  8
0
 62
     0
 48
0.5
100
AcDbLine
 10
452.3975512245833
 20
1055.960050361
 30
0.0
 11
448.9684346181452
 21
1050.02064617357
 31
0.0
  0
LINE
  5
AD2D
330
1F
100
AcDbEntity
  8
0
 62
     0
 48
0.5
100
AcDbLine
 10
452.3291190668687
 20
1056.616360778323
 30
0.0
 11
452.3975512245833
 21
1055.960050361
 31
0.0
  0
LINE
  5
AD2E
330
1F
100
AcDbEntity
  8
0
 48
0.3
100
AcDbLine
 10
452.3291190668687
 20
1056.616360778323
 30
0.0
 11
448.9684346181452
 21
1050.02064617357
 31
0.0
  0
LINE
  5
AD2F
330
1F
100
AcDbEntity
  8
0
 48
0.3
100
AcDbLine
 10
451.0550563024374
 20
1057.397998315321
 30
0.0
 11
447.5818691172774
 21
1050.648701049955
 31
0.0
  0
LINE
  5
AD30
330
1F
100
AcDbEntity
  8
0
 48
0.3
100
AcDbLine
 10
452.2198738116808
 20
1058.050878031714
 30
0.0
 11
447.7412504675249
 21
1049.267089886208
 31
0.0
  0
LINE
  5
AD31
330
1F
100
AcDbEntity
  8
0
 48
0.3
100
AcDbLine
 10
447.7058837340946
 20
1049.287508879275
 30
0.0
 11
447.7766172009555
 21
1049.246670893142
 31
0.0
  0
LINE
  5
AD32
330
1F
100
AcDbEntity
  8
0
 48
0.3
100
AcDbLine
 10
446.4073225133408
 20
1050.037233549636
 30
0.0
 11
446.4775790952789
 21
1049.996670893142
 31
0.0
  0
LWPOLYLINE
  5
AD33
330
1F
100
AcDbEntity
  8
0
 48
0.3
100
AcDbPolyline
 90
        4
 70
     0
 43
0.0
 10
446.4775790952789
 20
1049.996670893142
 10
447.4774052137759
 20
1050.645965566372
 42
-0.5755139880968628
 10
447.6317016992216
 20
1050.567882589658
 10
447.7058837340946
 20
1049.287508879275
  0
LINE
  5
AD34
330
1F
100
AcDbEntity
  8
0
 48
0.3
100
AcDbLine
 10
452.1847455207119
 20
1058.071159359961
 30
0.0
 11
452.25500210265
 21
1058.030596703467
 31
0.0
  0
LWPOLYLINE
  5
AD35
330
1F
100
AcDbEntity
  8
0
 48
0.3
100
AcDbPolyline
 90
        2
 70
     0
 43
0.0
 10
452.3291190668687
 20
1056.616360778323
 10
452.25500210265
 20
1058.030596703467
  0
LWPOLYLINE
  5
AD36
330
1F
100
AcDbEntity
  8
0
 48
0.3
100
AcDbPolyline
 90
        2
 70
     0
 43
0.0
 10
445.1785409896024
 20
1050.746670893142
 10
446.3703584067916
 20
1051.52064617357
  0
LWPOLYLINE
  5
AD37
330
1F
100
AcDbEntity
  8
0
 48
0.3
100
AcDbPolyline
 90
        2
 70
     0
 43
0.0
 10
442.5804647782488
 20
1052.246670893142
 10
443.7722821954385
 20
1053.02064617357
  0
LINE
  5
AD38
330
1F
100
AcDbEntity
  8
0
 48
0.3
100
AcDbLine
 10
449.6938899978456
 20
1058.047184079533
 30
0.0
 11
446.3332055491219
 21
1051.45146947478
 31
0.0
  0
LINE
  5
AD39
330
1F
100
AcDbEntity
  8
0
 48
0.3
100
AcDbLine
 10
447.0958137864922
 20
1059.547184079532
 30
0.0
 11
443.7351293377685
 21
1052.951469474779
 31
0.0
  0
LINE
  5
AD3A
330
1F
100
AcDbEntity
  8
0
 48
0.3
100
AcDbLine
 10
448.456980091084
 20
1058.897998315321
 30
0.0
 11
444.983792905924
 21
1052.148701049955
 31
0.0
  0
LINE
  5
AD3B
330
1F
100
AcDbEntity
  8
0
 48
0.3
100
AcDbLine
 10
449.6217976003276
 20
1059.550878031714
 30
0.0
 11
445.1431742561717
 21
1050.767089886208
 31
0.0
  0
LINE
  5
AD3C
330
1F
100
AcDbEntity
  8
0
 48
0.3
100
AcDbLine
 10
448.3220594842419
 20
1060.301282182912
 30
0.0
 11
443.8443745929567
 21
1051.516952221389
 31
0.0
  0
LINE
  5
AD3D
330
1F
100
AcDbEntity
  8
0
 48
0.3
100
AcDbLine
 10
445.107807522741
 20
1050.787508879275
 30
0.0
 11
445.1785409896024
 21
1050.746670893142
 31
0.0
  0
LINE
  5
AD3E
330
1F
100
AcDbEntity
  8
0
 48
0.3
100
AcDbLine
 10
443.8092463019875
 20
1051.537233549636
 30
0.0
 11
443.8795028839256
 21
1051.496670893142
 31
0.0
  0
LWPOLYLINE
  5
AD3F
330
1F
100
AcDbEntity
  8
0
 48
0.3
100
AcDbPolyline
 90
        4
 70
     0
 43
0.0
 10
443.8795028839256
 20
1051.496670893142
 10
444.8793290024227
 20
1052.145965566372
 42
-0.5755139880968628
 10
445.0336254878682
 20
1052.067882589658
 10
445.107807522741
 20
1050.787508879275
  0
LWPOLYLINE
  5
AD40
330
1F
100
AcDbEntity
  8
0
 48
0.3
100
AcDbPolyline
 90
        2
 70
     0
 43
0.0
 10
443.7351293377685
 20
1052.951469474779
 10
443.8092463019875
 20
1051.537233549636
  0
LINE
  5
AD41
330
1F
100
AcDbEntity
  8
0
 48
0.3
100
AcDbLine
 10
442.5097313113878
 20
1052.287508879275
 30
0.0
 11
442.5804647782488
 21
1052.246670893142
 31
0.0
  0
LWPOLYLINE
  5
AD42
330
1F
100
AcDbEntity
  8
0
 48
0.3
100
AcDbPolyline
 90
        2
 70
     0
 43
0.0
 10
450.8857074150353
 20
1058.821159359961
 10
449.7085557086602
 20
1058.056708103496
  0
LWPOLYLINE
  5
AD43
330
1F
100
AcDbEntity
  8
0
 48
0.3
100
AcDbPolyline
 90
        2
 70
     0
 43
0.0
 10
448.2876312036819
 20
1060.321159359961
 10
447.110479497307
 20
1059.556708103496
  0
LWPOLYLINE
  5
AD44
330
1F
100
AcDbEntity
  8
0
 48
0.3
100
AcDbPolyline
 90
        2
 70
     0
 43
0.0
 10
449.7310428555156
 20
1058.116360778323
 10
449.6569258912963
 20
1059.530596703466
  0
LWPOLYLINE
  5
AD45
330
1F
100
AcDbEntity
  8
0
 48
0.3
100
AcDbPolyline
 90
        4
 70
     0
 43
0.0
 10
449.5866693093585
 20
1059.571159359961
 10
448.5575728249634
 20
1058.902856288862
 42
-0.5828351435596054
 10
448.4031735142648
 20
1058.983129686198
 10
448.3564877648018
 20
1060.281405005863
  0
LINE
  5
AD46
330
1F
100
AcDbEntity
  8
0
 48
0.3
100
AcDbLine
 10
450.8857074150353
 20
1058.821159359961
 30
0.0
 11
450.9545639761549
 21
1058.781405005863
 31
0.0
  0
LINE
  5
AD47
330
1F
100
AcDbEntity
  8
0
 48
0.3
100
AcDbLine
 10
449.5866693093585
 20
1059.571159359961
 30
0.0
 11
449.6569258912963
 21
1059.530596703466
 31
0.0
  0
LINE
  5
AD48
330
1F
100
AcDbEntity
  8
0
 48
0.3
100
AcDbLine
 10
448.2876312036819
 20
1060.321159359961
 30
0.0
 11
448.3564877648018
 21
1060.281405005863
 31
0.0
  0
LINE
  5
AD49
330
1F
100
AcDbEntity
  8
0
 48
0.3
100
AcDbLine
 10
449.7310428555156
 20
1058.116360778323
 30
0.0
 11
446.3703584067916
 21
1051.52064617357
 31
0.0
  0
LINE
  5
AD4A
330
1F
100
AcDbEntity
  8
0
 48
0.3
100
AcDbLine
 10
447.1329666441622
 20
1059.616360778323
 30
0.0
 11
443.7722821954385
 21
1053.02064617357
 31
0.0
  0
LINE
  5
AD4B
330
1F
100
AcDbEntity
  8
0
 48
0.3
100
AcDbLine
 10
450.920135695595
 20
1058.801282182912
 30
0.0
 11
446.4424508043098
 21
1050.016952221389
 31
0.0
  0
LWPOLYLINE
  5
AD4C
330
1F
100
AcDbEntity
  8
0
 48
0.3
100
AcDbPolyline
 90
        2
 70
     0
 43
0.0
 10
446.3332055491219
 20
1051.45146947478
 10
446.4073225133411
 20
1050.037233549636
  0
LWPOLYLINE
  5
AD4D
330
1F
100
AcDbEntity
  8
0
 48
0.3
100
AcDbPolyline
 90
        4
 70
     0
 43
0.0
 10
452.1847455207119
 20
1058.071159359961
 10
451.1556490363168
 20
1057.402856288862
 42
-0.5828351435596054
 10
451.0012497256182
 20
1057.483129686197
 10
450.9545639761549
 20
1058.781405005863
  0
LINE
  5
AD4E
330
1F
100
AcDbEntity
  8
Object
 62
     0
 48
0.5
100
AcDbLine
 10
450.7969129733583
 20
1053.187663585339
 30
0.0
 11
448.6719129733582
 21
1049.507055619255
 31
0.0
  0
LINE
  5
AD4F
330
1F
100
AcDbEntity
  8
Object
 62
     0
 48
0.5
100
AcDbLine
 10
447.6473939205198
 20
1049.232536566417
 30
0.0
 11
448.6719129733582
 21
1049.507055619255
 31
0.0
  0
LINE
  5
AD50
330
1F
100
AcDbEntity
  8
0
 62
     0
 48
0.5
100
AcDbLine
 10
421.066150859825
 20
1061.692473056956
 30
0.0
 11
428.566150859825
 21
1074.682854113722
 31
0.0
  0
LINE
  5
AD51
330
1F
100
AcDbEntity
  8
0
 62
     0
 48
0.5
100
AcDbLine
 10
417.4860238409028
 20
1065.491511162632
 30
0.0
 11
423.4860238409027
 21
1075.883816008046
 31
0.0
  0
LWPOLYLINE
  5
AD91
330
1F
100
AcDbEntity
  8
0
 48
0.3
100
AcDbPolyline
 90
        2
 70
     0
 43
0.0
 10
504.8608653673604
 20
1016.025977757041
 10
505.341449093269
 20
1016.338072477814
  0
LWPOLYLINE
  5
AD92
330
1F
100
AcDbEntity
  8
0
 48
0.3
100
AcDbPolyline
 90
        2
 70
     0
 43
0.0
 10
505.3718793700868
 20
1027.10046622386
 10
504.1800619528971
 20
1026.326490943432
  0
LINE
  5
AD93
330
1F
100
AcDbEntity
  8
0
 48
0.3
100
AcDbLine
 10
500.9286227593613
 20
1018.296259085289
 30
0.0
 11
505.407246103517
 21
1027.080047230794
 31
0.0
  0
LINE
  5
AD94
330
1F
100
AcDbEntity
  8
0
 48
0.3
100
AcDbLine
 10
503.4546065731965
 20
1018.299953037469
 30
0.0
 11
506.8152910219205
 21
1024.895667642223
 31
0.0
  0
LINE
  5
AD95
330
1F
100
AcDbEntity
  8
0
 48
0.3
100
AcDbLine
 10
502.0934402686048
 20
1018.949138801681
 30
0.0
 11
505.5666274537648
 21
1025.698436067047
 31
0.0
  0
LINE
  5
AD96
330
1F
100
AcDbEntity
  8
0
 48
0.3
100
AcDbLine
 10
502.2283608754471
 20
1017.54585493409
 30
0.0
 11
506.7060457667325
 21
1026.330184895613
 31
0.0
  0
LINE
  5
AD97
330
1F
100
AcDbEntity
  8
0
 48
0.3
100
AcDbLine
 10
504.6915164799582
 20
1017.449138801681
 30
0.0
 11
508.1647036651181
 21
1024.198436067047
 31
0.0
  0
LINE
  5
AD98
330
1F
100
AcDbEntity
  8
0
 48
0.3
100
AcDbLine
 10
503.5266989707147
 20
1016.796259085289
 30
0.0
 11
508.0053223148706
 21
1025.580047230794
 31
0.0
  0
LINE
  5
AD99
330
1F
100
AcDbEntity
  8
0
 48
0.3
100
AcDbLine
 10
504.8264370868005
 20
1016.04585493409
 30
0.0
 11
509.3041219780856
 21
1024.830184895613
 31
0.0
  0
LINE
  5
AD9A
330
1F
100
AcDbEntity
  8
0
 48
0.3
100
AcDbLine
 10
503.4174537155267
 20
1018.230776338679
 30
0.0
 11
506.7781381642505
 21
1024.826490943432
 31
0.0
  0
LWPOLYLINE
  5
ADA1
330
1F
100
AcDbEntity
  8
0
 48
0.3
100
AcDbPolyline
 90
        4
 70
     0
 43
0.0
 10
506.6709174757634
 20
1026.35046622386
 10
505.6710913572665
 20
1025.701171550631
 42
-0.5755139880968628
 10
505.5167948718207
 20
1025.779254527344
 10
505.4426128369478
 20
1027.059628237727
  0
LWPOLYLINE
  5
ADA2
330
1F
100
AcDbEntity
  8
0
 48
0.3
100
AcDbPolyline
 90
        2
 70
     0
 43
0.0
 10
507.9699555814399
 20
1025.60046622386
 10
506.7781381642505
 20
1024.826490943432
  0
LWPOLYLINE
  5
ADA4
330
1F
100
AcDbEntity
  8
0
 48
0.3
100
AcDbPolyline
 90
        2
 70
     0
 43
0.0
 10
506.8152910219205
 20
1024.895667642223
 10
506.7411740577012
 20
1026.309903567366
  0
LINE
  5
ADA5
330
1F
100
AcDbEntity
  8
0
 48
0.3
100
AcDbLine
 10
508.0406890483011
 20
1025.559628237727
 30
0.0
 11
507.9699555814399
 21
1025.60046622386
 31
0.0
  0
LINE
  5
ADA6
330
1F
100
AcDbEntity
  8
0
 48
0.3
100
AcDbLine
 10
509.3392502690549
 20
1024.809903567366
 30
0.0
 11
509.2689936871165
 21
1024.85046622386
 31
0.0
  0
LWPOLYLINE
  5
ADA7
330
1F
100
AcDbEntity
  8
0
 48
0.3
100
AcDbPolyline
 90
        4
 70
     0
 43
0.0
 10
509.2689936871165
 20
1024.85046622386
 10
508.2691675686196
 20
1024.20117155063
 42
-0.5755139880968628
 10
508.1148710831739
 20
1024.279254527344
 10
508.0406890483011
 20
1025.559628237727
  0
LWPOLYLINE
  5
ADA8
330
1F
100
AcDbEntity
  8
0
 48
0.3
100
AcDbPolyline
 90
        2
 70
     0
 43
0.0
 10
509.4133672332737
 20
1023.395667642223
 10
509.3392502690546
 20
1024.809903567366
  0
LINE
  5
ADA9
330
1F
100
AcDbEntity
  8
0
 48
0.3
100
AcDbLine
 10
506.7411740577012
 20
1026.309903567366
 30
0.0
 11
506.6709174757634
 21
1026.35046622386
 31
0.0
  0
LINE
  5
ADAA
330
1F
100
AcDbEntity
  8
0
 48
0.3
100
AcDbLine
 10
505.4426128369478
 20
1027.059628237727
 30
0.0
 11
505.3718793700868
 21
1027.10046622386
 31
0.0
  0
LWPOLYLINE
  5
ADC3
330
1F
100
AcDbEntity
  8
0
 48
0.3
100
AcDbPolyline
 90
        2
 70
     0
 43
0.0
 10
497.0666367333003
 20
1020.525977757041
 10
498.2437884396754
 20
1021.290429013507
  0
LINE
  5
ADC4
330
1F
100
AcDbEntity
  8
Object
 62
     0
 48
0.5
100
AcDbLine
 10
497.1554311749773
 20
1026.159473531663
 30
0.0
 11
499.2804311749774
 21
1029.840081497747
 31
0.0
  0
LINE
  5
ADC5
330
1F
100
AcDbEntity
  8
0
 62
     0
 48
0.5
100
AcDbLine
 10
495.5547929237523
 20
1023.387086756003
 30
0.0
 11
498.9839095301904
 21
1029.326490943432
 31
0.0
  0
LINE
  5
ADC6
330
1F
100
AcDbEntity
  8
0
 48
0.3
100
AcDbLine
 10
495.6232250814669
 20
1022.730776338679
 30
0.0
 11
498.9839095301904
 21
1029.326490943432
 31
0.0
  0
LINE
  5
ADC7
330
1F
100
AcDbEntity
  8
0
 48
0.3
100
AcDbLine
 10
496.8972878458982
 20
1021.949138801681
 30
0.0
 11
500.3704750310582
 21
1028.698436067047
 31
0.0
  0
LINE
  5
ADC8
330
1F
100
AcDbEntity
  8
0
 48
0.3
100
AcDbLine
 10
495.7324703366548
 20
1021.296259085289
 30
0.0
 11
500.2110936808107
 21
1030.080047230794
 31
0.0
  0
LINE
  5
ADC9
330
1F
100
AcDbEntity
  8
0
 48
0.3
100
AcDbLine
 10
497.0322084527406
 20
1020.54585493409
 30
0.0
 11
501.5098933440258
 21
1029.330184895613
 31
0.0
  0
LWPOLYLINE
  5
ADCA
330
1F
100
AcDbEntity
  8
0
 48
0.3
100
AcDbPolyline
 90
        2
 70
     0
 43
0.0
 10
498.22130129282
 20
1021.230776338679
 10
498.2954182570392
 20
1019.816540413536
  0
LINE
  5
ADCB
330
1F
100
AcDbEntity
  8
0
 48
0.3
100
AcDbLine
 10
498.3656748389771
 20
1019.775977757042
 30
0.0
 11
498.2954182570392
 21
1019.816540413536
 31
0.0
  0
LWPOLYLINE
  5
ADCC
330
1F
100
AcDbEntity
  8
0
 48
0.3
100
AcDbPolyline
 90
        2
 70
     0
 43
0.0
 10
500.8193775041734
 20
1019.730776338679
 10
500.8934944683923
 20
1018.316540413536
  0
LWPOLYLINE
  5
ADCD
330
1F
100
AcDbEntity
  8
0
 48
0.3
100
AcDbPolyline
 90
        4
 70
     0
 43
0.0
 10
500.9637510503303
 20
1018.275977757042
 10
501.9928475347255
 20
1018.944280828141
 42
-0.5828351435596054
 10
502.147246845424
 20
1018.864007430805
 10
502.1939325948872
 20
1017.565732111139
  0
LWPOLYLINE
  5
ADCE
330
1F
100
AcDbEntity
  8
0
 48
0.3
100
AcDbPolyline
 90
        2
 70
     0
 43
0.0
 10
502.2627891560069
 20
1017.525977757042
 10
503.4399408623819
 20
1018.290429013507
  0
LWPOLYLINE
  5
ADCF
330
1F
100
AcDbEntity
  8
0
 48
0.3
100
AcDbPolyline
 90
        2
 70
     0
 43
0.0
 10
503.4174537155267
 20
1018.230776338679
 10
503.4915706797457
 20
1016.816540413536
  0
LWPOLYLINE
  5
ADD0
330
1F
100
AcDbEntity
  8
0
 48
0.3
100
AcDbPolyline
 90
        4
 70
     0
 43
0.0
 10
503.5618272616837
 20
1016.775977757041
 10
504.5909237460787
 20
1017.444280828141
 42
-0.5828351435596054
 10
504.7453230567775
 20
1017.364007430805
 10
504.7920088062405
 20
1016.065732111139
  0
LINE
  5
ADD1
330
1F
100
AcDbEntity
  8
0
 48
0.3
100
AcDbLine
 10
502.2627891560069
 20
1017.525977757042
 30
0.0
 11
502.1939325948872
 21
1017.565732111139
 31
0.0
  0
LINE
  5
ADD2
330
1F
100
AcDbEntity
  8
0
 48
0.3
100
AcDbLine
 10
503.5618272616837
 20
1016.775977757041
 30
0.0
 11
503.4915706797457
 21
1016.816540413536
 31
0.0
  0
LINE
  5
ADD3
330
1F
100
AcDbEntity
  8
0
 48
0.3
100
AcDbLine
 10
504.8608653673604
 20
1016.025977757041
 30
0.0
 11
504.7920088062405
 21
1016.065732111139
 31
0.0
  0
LINE
  5
ADD4
330
1F
100
AcDbEntity
  8
0
 48
0.3
100
AcDbLine
 10
500.9637510503303
 20
1018.275977757042
 30
0.0
 11
500.8934944683923
 21
1018.316540413536
 31
0.0
  0
LWPOLYLINE
  5
ADD5
330
1F
100
AcDbEntity
  8
0
 48
0.3
100
AcDbPolyline
 90
        2
 70
     0
 43
0.0
 10
499.6647129446537
 20
1019.025977757042
 10
500.8418646510286
 20
1019.790429013507
  0
LINE
  5
ADD6
330
1F
100
AcDbEntity
  8
0
 48
0.3
100
AcDbLine
 10
499.6647129446537
 20
1019.025977757042
 30
0.0
 11
499.5958563835338
 21
1019.06573211114
 31
0.0
  0
LWPOLYLINE
  5
ADD7
330
1F
100
AcDbEntity
  8
0
 48
0.3
100
AcDbPolyline
 90
        4
 70
     0
 43
0.0
 10
498.3656748389771
 20
1019.775977757042
 10
499.3947713233722
 20
1020.444280828141
 42
-0.5828351435596054
 10
499.5491706340708
 20
1020.364007430805
 10
499.5958563835338
 20
1019.06573211114
  0
LINE
  5
ADD9
330
1F
100
AcDbEntity
  8
0
 48
0.3
100
AcDbLine
 10
501.5450216349948
 20
1029.309903567366
 30
0.0
 11
501.4747650530567
 21
1029.35046622386
 31
0.0
  0
LWPOLYLINE
  5
ADDA
330
1F
100
AcDbEntity
  8
0
 48
0.3
100
AcDbPolyline
 90
        4
 70
     0
 43
0.0
 10
501.4747650530567
 20
1029.35046622386
 10
500.4749389345597
 20
1028.701171550631
 42
-0.5755139880968628
 10
500.320642449114
 20
1028.779254527344
 10
500.246460414241
 20
1030.059628237727
  0
LWPOLYLINE
  5
ADDB
330
1F
100
AcDbEntity
  8
0
 48
0.3
100
AcDbPolyline
 90
        2
 70
     0
 43
0.0
 10
502.7738031587332
 20
1028.60046622386
 10
501.581985741544
 20
1027.826490943432
  0
LINE
  5
ADDC
330
1F
100
AcDbEntity
  8
0
 48
0.3
100
AcDbLine
 10
502.8445366255946
 20
1028.559628237727
 30
0.0
 11
502.7738031587332
 21
1028.60046622386
 31
0.0
  0
LWPOLYLINE
  5
ADDD
330
1F
100
AcDbEntity
  8
0
 48
0.3
100
AcDbPolyline
 90
        2
 70
     0
 43
0.0
 10
501.6191385992137
 20
1027.895667642223
 10
501.5450216349945
 20
1029.309903567366
  0
LINE
  5
ADDF
330
1F
100
AcDbEntity
  8
0
 48
0.3
100
AcDbLine
 10
504.1430978463481
 20
1027.809903567366
 30
0.0
 11
504.07284126441
 21
1027.85046622386
 31
0.0
  0
LWPOLYLINE
  5
ADE0
330
1F
100
AcDbEntity
  8
0
 48
0.3
100
AcDbPolyline
 90
        2
 70
     0
 43
0.0
 10
504.2172148105671
 20
1026.395667642223
 10
504.1430978463481
 20
1027.809903567366
  0
LWPOLYLINE
  5
ADE1
330
1F
100
AcDbEntity
  8
0
 48
0.3
100
AcDbPolyline
 90
        4
 70
     0
 43
0.0
 10
504.07284126441
 20
1027.85046622386
 10
503.0730151459128
 20
1027.201171550631
 42
-0.5755139880968628
 10
502.9187186604674
 20
1027.279254527344
 10
502.8445366255946
 20
1028.559628237727
  0
LINE
  5
ADE2
330
1F
100
AcDbEntity
  8
0
 48
0.3
100
AcDbLine
 10
498.25845415049
 20
1021.29995303747
 30
0.0
 11
501.6191385992137
 21
1027.895667642223
 31
0.0
  0
LINE
  5
ADE3
330
1F
100
AcDbEntity
  8
0
 48
0.3
100
AcDbLine
 10
500.8565303618434
 20
1019.799953037469
 30
0.0
 11
504.2172148105671
 21
1026.395667642223
 31
0.0
  0
LINE
  5
ADE4
330
1F
100
AcDbEntity
  8
0
 48
0.3
100
AcDbLine
 10
499.4953640572516
 20
1020.449138801681
 30
0.0
 11
502.9685512424116
 21
1027.198436067047
 31
0.0
  0
LINE
  5
ADE5
330
1F
100
AcDbEntity
  8
0
 48
0.3
100
AcDbLine
 10
498.3305465480079
 20
1019.796259085289
 30
0.0
 11
502.8091698921639
 21
1028.580047230794
 31
0.0
  0
LINE
  5
ADE6
330
1F
100
AcDbEntity
  8
0
 48
0.3
100
AcDbLine
 10
499.6302846640937
 20
1019.045854934091
 30
0.0
 11
504.1079695553789
 21
1027.830184895613
 31
0.0
  0
LINE
  5
ADE7
330
1F
100
AcDbEntity
  8
0
 48
0.3
100
AcDbLine
 10
498.22130129282
 20
1021.230776338679
 30
0.0
 11
501.581985741544
 21
1027.826490943432
 31
0.0
  0
LINE
  5
ADE8
330
1F
100
AcDbEntity
  8
0
 48
0.3
100
AcDbLine
 10
500.8193775041734
 20
1019.730776338679
 30
0.0
 11
504.1800619528971
 21
1026.326490943432
 31
0.0
  0
LINE
  5
ADE9
330
1F
100
AcDbEntity
  8
0
 62
     0
 48
0.5
100
AcDbLine
 10
495.6232250814669
 20
1022.730776338679
 30
0.0
 11
495.5547929237523
 21
1023.387086756003
 31
0.0
  0
LINE
  5
ADEA
330
1F
100
AcDbEntity
  8
0
 48
0.3
100
AcDbLine
 10
495.7675986276237
 20
1021.275977757041
 30
0.0
 11
495.6973420456856
 21
1021.316540413536
 31
0.0
  0
LWPOLYLINE
  5
ADEB
330
1F
100
AcDbEntity
  8
0
 48
0.3
100
AcDbPolyline
 90
        2
 70
     0
 43
0.0
 10
495.6232250814669
 20
1022.730776338679
 10
495.6973420456856
 20
1021.316540413536
  0
LINE
  5
ADEC
330
1F
100
AcDbEntity
  8
0
 48
0.3
100
AcDbLine
 10
497.0666367333003
 20
1020.525977757041
 30
0.0
 11
496.9977801721807
 21
1020.565732111139
 31
0.0
  0
LWPOLYLINE
  5
ADED
330
1F
100
AcDbEntity
  8
0
 48
0.3
100
AcDbPolyline
 90
        4
 70
     0
 43
0.0
 10
495.7675986276237
 20
1021.275977757041
 10
496.7966951120188
 20
1021.944280828141
 42
-0.5828351435596054
 10
496.9510944227174
 20
1021.864007430805
 10
496.9977801721807
 20
1020.565732111139
  0
LINE
  5
ADEF
330
1F
100
AcDbEntity
  8
Object
 62
     0
 48
0.5
100
AcDbLine
 10
491.6176929930661
 20
1038.247882307211
 30
0.0
 11
483.9176929930663
 21
1024.911091088931
 31
0.0
  0
LINE
  5
ADF0
330
1F
100
AcDbEntity
  8
Object
 62
     0
 48
0.5
100
AcDbLine
 10
486.1205688353541
 20
1023.728904048665
 30
0.0
 11
489.9327565025273
 21
1030.329486698071
 31
0.0
  0
LINE
  5
ADF1
330
1F
100
AcDbEntity
  8
Object
 62
     0
 48
0.5
100
AcDbLine
 10
484.032033349571
 20
1024.509423762724
 30
0.0
 11
485.7061889407664
 21
1023.610978963936
 31
0.0
  0
LINE
  5
ADF2
330
1F
100
AcDbEntity
  8
Object
 62
     0
 48
0.5
100
AcDbLine
 10
483.9176929930663
 20
1024.911091088931
 30
0.0
 11
484.032033349571
 21
1024.509423762724
 31
0.0
  0
LINE
  5
ADF3
330
1F
100
AcDbEntity
  8
Object
 62
     0
 48
0.5
100
AcDbLine
 10
486.1205688353541
 20
1023.728904048665
 30
0.0
 11
485.7061889407664
 21
1023.610978963936
 31
0.0
  0
LINE
  5
ADF4
330
1F
100
AcDbEntity
  8
Object
 62
     0
 48
0.5
100
AcDbLine
 10
493.6729488813921
 20
1037.407689928347
 30
0.0
 11
492.0275006142019
 21
1038.357689928347
 31
0.0
  0
LINE
  5
ADF5
330
1F
100
AcDbEntity
  8
Object
 62
     0
 48
0.5
100
AcDbLine
 10
492.0275006142019
 20
1038.357689928347
 30
0.0
 11
491.6176929930661
 21
1038.247882307211
 31
0.0
  0
LINE
  5
ADF6
330
1F
100
AcDbEntity
  8
Object
 62
     0
 48
0.5
100
AcDbLine
 10
493.6729488813921
 20
1037.407689928347
 30
0.0
 11
493.7827565025272
 21
1036.997882307211
 31
0.0
  0
LINE
  5
ADF7
330
1F
100
AcDbEntity
  8
Object
 62
     0
 48
0.5
100
AcDbLine
 10
489.9327565025273
 20
1030.329486698071
 30
0.0
 11
486.8968091456058
 21
1030.071071626778
 31
0.0
  0
LINE
  5
ADF8
330
1F
100
AcDbEntity
  8
Object
 62
     0
 48
0.5
100
AcDbLine
 10
489.9327565025273
 20
1030.329486698071
 30
0.0
 11
493.7827565025272
 21
1036.997882307211
 31
0.0
  0
LINE
  5
ADF9
330
1F
100
AcDbEntity
  8
0
 62
     0
 48
0.5
100
AcDbLine
 10
312.2482707535243
 20
1122.209104352215
 30
0.0
 11
321.7482707535245
 21
1138.663587024119
 31
0.0
  0
LWPOLYLINE
  5
ADFB
330
1F
100
AcDbEntity
  8
0
 48
0.3
100
AcDbPolyline
 90
        3
 70
     0
 43
0.0
 10
374.884704450888
 20
1250.525060801877
 42
-0.3746788278168931
 10
374.758126386983
 20
1250.560412260083
 10
374.0536960050868
 20
1251.632157402176
  0
LWPOLYLINE
  5
ADFC
330
1F
100
AcDbEntity
  8
0
 48
0.3
100
AcDbPolyline
 90
        2
 70
     0
 43
0.0
 10
374.5667131581797
 20
1241.78586205463
 10
374.884704450888
 20
1242.409955106359
  0
LINE
  5
ADFD
330
1F
100
AcDbEntity
  8
0
 62
     0
 48
0.5
100
AcDbLine
 10
374.884704450888
 20
1242.409955106359
 30
0.0
 11
374.884704450888
 21
1249.626232178236
 31
0.0
  0
LINE
  5
ADFE
330
1F
100
AcDbEntity
  8
0
 48
0.3
100
AcDbLine
 10
374.884704450888
 20
1249.626232178236
 30
0.0
 11
374.8416918990311
 21
1250.515337711343
 31
0.0
  0
LWPOLYLINE
  5
ADFF
330
1F
100
AcDbEntity
  8
0
 48
0.3
100
AcDbPolyline
 90
        4
 70
     0
 43
0.0
 10
365.5667131581797
 20
1241.78586205463
 10
366.1237853210615
 20
1242.879177733827
 42
-0.5828351435596054
 10
366.2976357451213
 20
1242.886858587835
 10
366.9872044499836
 20
1241.78586205463
  0
LWPOLYLINE
  5
AE00
330
1F
100
AcDbEntity
  8
0
 48
0.3
100
AcDbPolyline
 90
        2
 70
     0
 43
0.0
 10
367.3244504822462
 20
1250.444451646167
 10
366.5531453458094
 20
1251.632157402176
  0
LINE
  5
AE01
330
1F
100
AcDbEntity
  8
0
 48
0.3
100
AcDbLine
 10
367.0269588040817
 20
1241.78586205463
 30
0.0
 11
366.5125826893153
 21
1251.632157402176
 31
0.0
  0
LINE
  5
AE02
330
1F
100
AcDbEntity
  8
0
 48
0.3
100
AcDbLine
 10
367.0667131581797
 20
1241.78586205463
 30
0.0
 11
366.9872044499836
 21
1241.78586205463
 31
0.0
  0
LWPOLYLINE
  5
AE03
330
1F
100
AcDbEntity
  8
0
 48
0.3
100
AcDbPolyline
 90
        4
 70
     0
 43
0.0
 10
372.472020032821
 20
1251.632157402176
 10
371.9307925514499
 20
1250.569938661369
 42
-0.5755139880968628
 10
371.758126386983
 20
1250.560412260083
 10
371.0536960050867
 20
1251.632157402176
  0
LINE
  5
AE04
330
1F
100
AcDbEntity
  8
0
 48
0.3
100
AcDbLine
 10
372.5531453458095
 20
1251.632157402176
 30
0.0
 11
372.472020032821
 21
1251.632157402176
 31
0.0
  0
LINE
  5
AE05
330
1F
100
AcDbEntity
  8
0
 48
0.3
100
AcDbLine
 10
372.208472197267
 20
1242.933681229263
 30
0.0
 11
371.8416918990311
 21
1250.515337711343
 31
0.0
  0
LINE
  5
AE06
330
1F
100
AcDbEntity
  8
0
 48
0.3
100
AcDbLine
 10
370.7142827087545
 20
1242.973567810639
 30
0.0
 11
370.326863513076
 21
1250.365966438829
 31
0.0
  0
LWPOLYLINE
  5
AE07
330
1F
100
AcDbEntity
  8
0
 48
0.3
100
AcDbPolyline
 90
        2
 70
     0
 43
0.0
 10
370.7142827087545
 20
1242.973567810639
 10
371.4855878451913
 20
1241.78586205463
  0
LINE
  5
AE08
330
1F
100
AcDbEntity
  8
0
 48
0.3
100
AcDbLine
 10
371.5667131581797
 20
1241.78586205463
 30
0.0
 11
371.4855878451913
 21
1241.78586205463
 31
0.0
  0
LINE
  5
AE09
330
1F
100
AcDbEntity
  8
0
 48
0.3
100
AcDbLine
 10
370.0667131581797
 20
1241.78586205463
 30
0.0
 11
369.9872044499836
 21
1241.78586205463
 31
0.0
  0
LINE
  5
AE0A
330
1F
100
AcDbEntity
  8
0
 48
0.3
100
AcDbLine
 10
368.5667131581797
 20
1241.78586205463
 30
0.0
 11
368.4855878451912
 21
1241.78586205463
 31
0.0
  0
LWPOLYLINE
  5
AE0B
330
1F
100
AcDbEntity
  8
0
 48
0.3
100
AcDbPolyline
 90
        4
 70
     0
 43
0.0
 10
368.5667131581797
 20
1241.78586205463
 10
369.1237853210616
 20
1242.879177733827
 42
-0.5828351435596054
 10
369.2976357451213
 20
1242.886858587835
 10
369.9872044499836
 20
1241.78586205463
  0
LWPOLYLINE
  5
AE0C
330
1F
100
AcDbEntity
  8
0
 48
0.3
100
AcDbPolyline
 90
        2
 70
     0
 43
0.0
 10
367.7142827087545
 20
1242.973567810639
 10
368.4855878451912
 20
1241.78586205463
  0
LWPOLYLINE
  5
AE0D
330
1F
100
AcDbEntity
  8
0
 48
0.3
100
AcDbPolyline
 90
        2
 70
     0
 43
0.0
 10
370.0667131581797
 20
1241.78586205463
 10
370.7039308117758
 20
1243.036472115871
  0
LINE
  5
AE0E
330
1F
100
AcDbEntity
  8
0
 48
0.3
100
AcDbLine
 10
371.0536960050867
 20
1251.632157402176
 30
0.0
 11
370.972020032821
 21
1251.632157402176
 31
0.0
  0
LWPOLYLINE
  5
AE0F
330
1F
100
AcDbEntity
  8
0
 48
0.3
100
AcDbPolyline
 90
        2
 70
     0
 43
0.0
 10
370.3244504822462
 20
1250.444451646167
 10
369.5531453458094
 20
1251.632157402176
  0
LWPOLYLINE
  5
AE10
330
1F
100
AcDbEntity
  8
0
 48
0.3
100
AcDbPolyline
 90
        4
 70
     0
 43
0.0
 10
369.472020032821
 20
1251.632157402176
 10
368.93079255145
 20
1250.569938661369
 42
-0.5755139880968628
 10
368.758126386983
 20
1250.560412260083
 10
368.0536960050868
 20
1251.632157402176
  0
LINE
  5
AE11
330
1F
100
AcDbEntity
  8
0
 48
0.3
100
AcDbLine
 10
369.5531453458095
 20
1251.632157402176
 30
0.0
 11
369.472020032821
 21
1251.632157402176
 31
0.0
  0
LINE
  5
AE12
330
1F
100
AcDbEntity
  8
0
 48
0.3
100
AcDbLine
 10
368.0536960050868
 20
1251.632157402176
 30
0.0
 11
367.972020032821
 21
1251.632157402176
 31
0.0
  0
LINE
  5
AE13
330
1F
100
AcDbEntity
  8
0
 48
0.3
100
AcDbLine
 10
370.0269588040816
 20
1241.78586205463
 30
0.0
 11
369.5125826893153
 21
1251.632157402176
 31
0.0
  0
LINE
  5
AE14
330
1F
100
AcDbEntity
  8
0
 48
0.3
100
AcDbLine
 10
368.5261505016855
 20
1241.78586205463
 30
0.0
 11
368.0128580189539
 21
1251.632157402176
 31
0.0
  0
LINE
  5
AE15
330
1F
100
AcDbEntity
  8
0
 48
0.3
100
AcDbLine
 10
369.208472197267
 20
1242.933681229263
 30
0.0
 11
368.8416918990311
 21
1250.515337711343
 31
0.0
  0
LINE
  5
AE16
330
1F
100
AcDbEntity
  8
0
 48
0.3
100
AcDbLine
 10
370.7118696779246
 20
1243.052053017977
 30
0.0
 11
370.3244504822462
 21
1250.444451646167
 31
0.0
  0
LINE
  5
AE17
330
1F
100
AcDbEntity
  8
0
 48
0.3
100
AcDbLine
 10
371.5261505016854
 20
1241.78586205463
 30
0.0
 11
371.0128580189539
 21
1251.632157402176
 31
0.0
  0
LWPOLYLINE
  5
AE18
330
1F
100
AcDbEntity
  8
0
 48
0.3
100
AcDbPolyline
 90
        2
 70
     0
 43
0.0
 10
370.972020032821
 20
1251.632157402176
 10
370.326863513076
 20
1250.365966438829
  0
LINE
  5
AE19
330
1F
100
AcDbEntity
  8
0
 48
0.3
100
AcDbLine
 10
367.7142827087545
 20
1242.973567810639
 30
0.0
 11
367.3268635130761
 21
1250.365966438829
 31
0.0
  0
LWPOLYLINE
  5
AE1A
330
1F
100
AcDbEntity
  8
0
 48
0.3
100
AcDbPolyline
 90
        2
 70
     0
 43
0.0
 10
367.0667131581797
 20
1241.78586205463
 10
367.7039308117759
 20
1243.036472115871
  0
LINE
  5
AE1B
330
1F
100
AcDbEntity
  8
0
 48
0.3
100
AcDbLine
 10
367.7118696779246
 20
1243.052053017977
 30
0.0
 11
367.3244504822462
 21
1250.444451646167
 31
0.0
  0
LWPOLYLINE
  5
AE1C
330
1F
100
AcDbEntity
  8
0
 48
0.3
100
AcDbPolyline
 90
        2
 70
     0
 43
0.0
 10
367.972020032821
 20
1251.632157402176
 10
367.3268635130761
 20
1250.365966438829
  0
LINE
  5
AE1D
330
1F
100
AcDbEntity
  8
0
 48
0.3
100
AcDbLine
 10
373.7142827087545
 20
1242.973567810639
 30
0.0
 11
373.3268635130761
 21
1250.365966438829
 31
0.0
  0
LINE
  5
AE1E
330
1F
100
AcDbEntity
  8
0
 48
0.3
100
AcDbLine
 10
374.5667131581797
 20
1241.78586205463
 30
0.0
 11
374.4855878451912
 21
1241.78586205463
 31
0.0
  0
LINE
  5
AE1F
330
1F
100
AcDbEntity
  8
0
 48
0.3
100
AcDbLine
 10
373.0667131581796
 20
1241.78586205463
 30
0.0
 11
372.9872044499836
 21
1241.78586205463
 31
0.0
  0
LWPOLYLINE
  5
AE20
330
1F
100
AcDbEntity
  8
0
 48
0.3
100
AcDbPolyline
 90
        2
 70
     0
 43
0.0
 10
373.7142827087545
 20
1242.973567810639
 10
374.4855878451912
 20
1241.78586205463
  0
LWPOLYLINE
  5
AE21
330
1F
100
AcDbEntity
  8
0
 48
0.3
100
AcDbPolyline
 90
        2
 70
     0
 43
0.0
 10
373.0667131581796
 20
1241.78586205463
 10
373.7039308117758
 20
1243.036472115871
  0
LINE
  5
AE22
330
1F
100
AcDbEntity
  8
0
 48
0.3
100
AcDbLine
 10
374.0536960050868
 20
1251.632157402176
 30
0.0
 11
373.972020032821
 21
1251.632157402176
 31
0.0
  0
LINE
  5
AE23
330
1F
100
AcDbEntity
  8
0
 48
0.3
100
AcDbLine
 10
374.5261505016855
 20
1241.78586205463
 30
0.0
 11
374.0128580189539
 21
1251.632157402176
 31
0.0
  0
LINE
  5
AE24
330
1F
100
AcDbEntity
  8
0
 48
0.3
100
AcDbLine
 10
373.7118696779246
 20
1243.052053017977
 30
0.0
 11
373.3244504822462
 21
1250.444451646167
 31
0.0
  0
LWPOLYLINE
  5
AE25
330
1F
100
AcDbEntity
  8
0
 48
0.3
100
AcDbPolyline
 90
        2
 70
     0
 43
0.0
 10
373.972020032821
 20
1251.632157402176
 10
373.3268635130761
 20
1250.365966438829
  0
LWPOLYLINE
  5
AE26
330
1F
100
AcDbEntity
  8
0
 48
0.3
100
AcDbPolyline
 90
        4
 70
     0
 43
0.0
 10
371.5667131581797
 20
1241.78586205463
 10
372.1237853210615
 20
1242.879177733827
 42
-0.5828351435596054
 10
372.2976357451213
 20
1242.886858587835
 10
372.9872044499836
 20
1241.78586205463
  0
LWPOLYLINE
  5
AE27
330
1F
100
AcDbEntity
  8
0
 48
0.3
100
AcDbPolyline
 90
        2
 70
     0
 43
0.0
 10
373.3244504822462
 20
1250.444451646167
 10
372.5531453458094
 20
1251.632157402176
  0
LINE
  5
AE28
330
1F
100
AcDbEntity
  8
0
 48
0.3
100
AcDbLine
 10
373.0269588040816
 20
1241.78586205463
 30
0.0
 11
372.5125826893153
 21
1251.632157402176
 31
0.0
  0
LWPOLYLINE
  5
AE29
330
1F
100
AcDbEntity
  8
0
 48
0.3
100
AcDbPolyline
 90
        2
 70
     0
 43
0.0
 10
364.884704450888
 20
1242.711141340856
 10
365.4855878451912
 20
1241.78586205463
  0
LINE
  5
AE2A
330
1F
100
AcDbEntity
  8
0
 48
0.3
100
AcDbLine
 10
365.5667131581797
 20
1241.78586205463
 30
0.0
 11
365.4855878451912
 21
1241.78586205463
 31
0.0
  0
LINE
  5
AE2B
330
1F
100
AcDbEntity
  8
0
 48
0.3
100
AcDbLine
 10
365.0536960050867
 20
1251.632157402176
 30
0.0
 11
364.972020032821
 21
1251.632157402176
 31
0.0
  0
LINE
  5
AE2C
330
1F
100
AcDbEntity
  8
0
 48
0.3
100
AcDbLine
 10
366.5531453458095
 20
1251.632157402176
 30
0.0
 11
366.472020032821
 21
1251.632157402176
 31
0.0
  0
LWPOLYLINE
  5
AE2D
330
1F
100
AcDbEntity
  8
0
 48
0.3
100
AcDbPolyline
 90
        4
 70
     0
 43
0.0
 10
366.472020032821
 20
1251.632157402176
 10
365.93079255145
 20
1250.569938661369
 42
-0.5755139880968628
 10
365.758126386983
 20
1250.560412260083
 10
365.0536960050867
 20
1251.632157402176
  0
LINE
  5
AE2E
330
1F
100
AcDbEntity
  8
0
 48
0.3
100
AcDbLine
 10
365.5261505016854
 20
1241.78586205463
 30
0.0
 11
365.0128580189539
 21
1251.632157402176
 31
0.0
  0
LINE
  5
AE2F
330
1F
100
AcDbEntity
  8
0
 48
0.3
100
AcDbLine
 10
366.208472197267
 20
1242.933681229263
 30
0.0
 11
365.8416918990311
 21
1250.515337711343
 31
0.0
  0
LWPOLYLINE
  5
AE30
330
1F
100
AcDbEntity
  8
0
 48
0.3
100
AcDbPolyline
 90
        2
 70
     0
 43
0.0
 10
364.972020032821
 20
1251.632157402176
 10
364.884704450888
 20
1251.46079092378
  0
LINE
  5
AE33
330
1F
100
AcDbEntity
  8
0
 48
0.3
100
AcDbLine
 10
428.5259068160715
 20
1240.273062436422
 30
0.0
 11
424.0472834719155
 21
1231.489274290917
 31
0.0
  0
LWPOLYLINE
  5
AE34
330
1F
100
AcDbEntity
  8
0
 48
0.3
100
AcDbPolyline
 90
        2
 70
     0
 43
0.0
 10
424.0826502053463
 20
1231.468855297851
 10
425.2744676225354
 20
1232.242830578279
  0
LWPOLYLINE
  5
AE35
330
1F
100
AcDbEntity
  8
0
 48
0.3
100
AcDbPolyline
 90
        4
 70
     0
 43
0.0
 10
425.8927023137492
 20
1241.793343764669
 10
424.863605829354
 20
1241.12504069357
 42
-0.5828351435596054
 10
424.7092065186555
 20
1241.205314090906
 10
424.6625207691923
 20
1242.503589410572
  0
LINE
  5
AE36
330
1F
100
AcDbEntity
  8
0
 48
0.3
100
AcDbLine
 10
427.3610893068278
 20
1239.62018272003
 30
0.0
 11
423.8879021216678
 21
1232.870885454664
 31
0.0
  0
LINE
  5
AE37
330
1F
100
AcDbEntity
  8
0
 48
0.3
100
AcDbLine
 10
426.037075859906
 20
1240.338545183032
 30
0.0
 11
422.6763914111823
 21
1233.742830578279
 31
0.0
  0
LINE
  5
AE38
330
1F
100
AcDbEntity
  8
0
 48
0.3
100
AcDbLine
 10
427.2261686999857
 20
1241.02346658762
 30
0.0
 11
422.7484838087005
 21
1232.239136626098
 31
0.0
  0
LINE
  5
AE39
330
1F
100
AcDbEntity
  8
0
 48
0.3
100
AcDbLine
 10
425.9999230022361
 20
1240.269368484241
 30
0.0
 11
422.6392385535123
 21
1233.673653879488
 31
0.0
  0
LINE
  5
AE3A
330
1F
100
AcDbEntity
  8
0
 48
0.3
100
AcDbLine
 10
425.9278306047181
 20
1241.773062436422
 30
0.0
 11
421.4492072605624
 21
1232.989274290917
 31
0.0
  0
LINE
  5
AE3C
330
1F
100
AcDbEntity
  8
Object
 62
     0
 48
0.5
100
AcDbLine
 10
427.5760221891022
 20
1230.229240023964
 30
0.0
 11
426.6198179534749
 21
1229.973025871228
 31
0.0
  0
LINE
  5
AE3D
330
1F
100
AcDbEntity
  8
0
 48
0.3
100
AcDbLine
 10
429.8242449113389
 20
1239.52346658762
 30
0.0
 11
425.3465600200536
 21
1230.739136626098
 31
0.0
  0
LINE
  5
AE3E
330
1F
100
AcDbEntity
  8
0
 48
0.3
100
AcDbLine
 10
429.9591655181812
 20
1238.12018272003
 30
0.0
 11
426.4859783330212
 21
1231.370885454664
 31
0.0
  0
LINE
  5
AE3F
330
1F
100
AcDbEntity
  8
Object
 62
     0
 48
0.5
100
AcDbLine
 10
429.7010221891021
 20
1233.909847990048
 30
0.0
 11
427.5760221891022
 21
1230.229240023964
 31
0.0
  0
LWPOLYLINE
  5
AE40
330
1F
100
AcDbEntity
  8
0
 48
0.3
100
AcDbPolyline
 90
        2
 70
     0
 43
0.0
 10
429.7898166307791
 20
1239.543343764669
 10
428.6126649244041
 20
1238.778892508204
  0
LINE
  5
AE41
330
1F
100
AcDbEntity
  8
0
 48
0.3
100
AcDbLine
 10
428.6351520712594
 20
1238.838545183032
 30
0.0
 11
425.2744676225354
 21
1232.242830578279
 31
0.0
  0
LINE
  5
AE42
330
1F
100
AcDbEntity
  8
0
 48
0.3
100
AcDbLine
 10
428.5979992135895
 20
1238.769368484241
 30
0.0
 11
425.2373147648657
 21
1232.173653879488
 31
0.0
  0
LWPOLYLINE
  5
AE43
330
1F
100
AcDbEntity
  8
0
 48
0.3
100
AcDbPolyline
 90
        2
 70
     0
 43
0.0
 10
425.2373147648657
 20
1232.173653879488
 10
425.3114317290849
 20
1230.759417954345
  0
LWPOLYLINE
  5
AE44
330
1F
100
AcDbEntity
  8
0
 48
0.3
100
AcDbPolyline
 90
        4
 70
     0
 43
0.0
 10
425.3816883110228
 20
1230.718855297851
 10
426.3815144295198
 20
1231.36814997108
 42
-0.5755139880968628
 10
426.5358109149654
 20
1231.290066994367
 10
426.6099929498385
 20
1230.009693283984
  0
LINE
  5
AE45
330
1F
100
AcDbEntity
  8
0
 48
0.3
100
AcDbLine
 10
425.3114317290847
 20
1230.759417954345
 30
0.0
 11
425.3816883110228
 21
1230.718855297851
 31
0.0
  0
LWPOLYLINE
  5
AE46
330
1F
100
AcDbEntity
  8
0
 48
0.3
100
AcDbPolyline
 90
        4
 70
     0
 43
0.0
 10
428.4907785251023
 20
1240.293343764669
 10
427.4616820407073
 20
1239.62504069357
 42
-0.5828351435596054
 10
427.3072827300087
 20
1239.705314090906
 10
427.2605969805456
 20
1241.003589410571
  0
LINE
  5
AE47
330
1F
100
AcDbEntity
  8
0
 48
0.3
100
AcDbLine
 10
427.1917404194257
 20
1241.043343764669
 30
0.0
 11
427.2605969805456
 21
1241.003589410571
 31
0.0
  0
LWPOLYLINE
  5
AE48
330
1F
100
AcDbEntity
  8
0
 48
0.3
100
AcDbPolyline
 90
        2
 70
     0
 43
0.0
 10
427.1917404194257
 20
1241.043343764669
 10
426.014588713051
 20
1240.278892508204
  0
LINE
  5
AE49
330
1F
100
AcDbEntity
  8
0
 48
0.3
100
AcDbLine
 10
425.8927023137492
 20
1241.793343764669
 30
0.0
 11
425.9629588956871
 21
1241.752781108175
 31
0.0
  0
LWPOLYLINE
  5
AE4A
330
1F
100
AcDbEntity
  8
0
 48
0.3
100
AcDbPolyline
 90
        2
 70
     0
 43
0.0
 10
426.037075859906
 20
1240.338545183032
 10
425.9629588956871
 20
1241.752781108175
  0
LINE
  5
AE4B
330
1F
100
AcDbEntity
  8
0
 48
0.3
100
AcDbLine
 10
428.4907785251023
 20
1240.293343764669
 30
0.0
 11
428.5610351070402
 21
1240.252781108175
 31
0.0
  0
LWPOLYLINE
  5
AE4C
330
1F
100
AcDbEntity
  8
0
 48
0.3
100
AcDbPolyline
 90
        2
 70
     0
 43
0.0
 10
428.6351520712594
 20
1238.838545183032
 10
428.5610351070402
 20
1240.252781108175
  0
LINE
  5
AE4D
330
1F
100
AcDbEntity
  8
0
 48
0.3
100
AcDbLine
 10
429.7898166307791
 20
1239.543343764669
 30
0.0
 11
429.8586731918988
 21
1239.503589410571
 31
0.0
  0
LWPOLYLINE
  5
AE4E
330
1F
100
AcDbEntity
  8
0
 48
0.3
100
AcDbPolyline
 90
        2
 70
     0
 43
0.0
 10
431.2332282826126
 20
1237.338545183032
 10
431.1591113183938
 20
1238.752781108175
  0
LINE
  5
AE4F
330
1F
100
AcDbEntity
  8
0
 48
0.3
100
AcDbLine
 10
431.0888547364557
 20
1238.793343764669
 30
0.0
 11
431.1591113183938
 21
1238.752781108175
 31
0.0
  0
LINE
  5
AE50
330
1F
100
AcDbEntity
  8
0
 62
     0
 48
0.5
100
AcDbLine
 10
431.2332282826126
 20
1237.338545183032
 30
0.0
 11
431.3016604403272
 21
1236.682234765708
 31
0.0
  0
LINE
  5
AE52
330
1F
100
AcDbEntity
  8
0
 48
0.3
100
AcDbLine
 10
431.1239830274247
 20
1238.773062436422
 30
0.0
 11
426.6453596832687
 21
1229.989274290917
 31
0.0
  0
LINE
  5
AE53
330
1F
100
AcDbEntity
  8
0
 48
0.3
100
AcDbLine
 10
431.2332282826126
 20
1237.338545183032
 30
0.0
 11
427.8725438338891
 21
1230.742830578279
 31
0.0
  0
LINE
  5
AE54
330
1F
100
AcDbEntity
  8
0
 62
     0
 48
0.5
100
AcDbLine
 10
431.3016604403272
 20
1236.682234765708
 30
0.0
 11
427.8725438338891
 21
1230.742830578279
 31
0.0
  0
LWPOLYLINE
  5
AE55
330
1F
100
AcDbEntity
  8
0
 48
0.3
100
AcDbPolyline
 90
        4
 70
     0
 43
0.0
 10
431.0888547364557
 20
1238.793343764669
 10
430.0597582520607
 20
1238.12504069357
 42
-0.5828351435596054
 10
429.905358941362
 20
1238.205314090906
 10
429.8586731918988
 20
1239.503589410571
  0
LWPOLYLINE
  5
AE56
330
1F
100
AcDbEntity
  8
0
 48
0.3
100
AcDbPolyline
 90
        2
 70
     0
 43
0.0
 10
421.995587996719
 20
1244.043343764669
 10
421.5150042708105
 20
1243.731249043897
  0
LWPOLYLINE
  5
AE57
330
1F
100
AcDbEntity
  8
0
 48
0.3
100
AcDbPolyline
 90
        2
 70
     0
 43
0.0
 10
420.0411623421589
 20
1235.173653879488
 10
420.1152793063782
 20
1233.759417954345
  0
LWPOLYLINE
  5
AE58
330
1F
100
AcDbEntity
  8
0
 48
0.3
100
AcDbPolyline
 90
        4
 70
     0
 43
0.0
 10
420.1855358883161
 20
1233.718855297851
 10
421.185362006813
 20
1234.36814997108
 42
-0.5755139880968628
 10
421.3396584922587
 20
1234.290066994367
 10
421.4138405271317
 20
1233.009693283984
  0
LINE
  5
AE59
330
1F
100
AcDbEntity
  8
0
 48
0.3
100
AcDbLine
 10
420.1152793063782
 20
1233.759417954345
 30
0.0
 11
420.1855358883161
 21
1233.718855297851
 31
0.0
  0
LWPOLYLINE
  5
AE5A
330
1F
100
AcDbEntity
  8
0
 48
0.3
100
AcDbPolyline
 90
        2
 70
     0
 43
0.0
 10
422.6392385535123
 20
1233.673653879488
 10
422.7133555177314
 20
1232.259417954345
  0
LINE
  5
AE5B
330
1F
100
AcDbEntity
  8
0
 48
0.3
100
AcDbLine
 10
422.7133555177314
 20
1232.259417954345
 30
0.0
 11
422.7836120996695
 21
1232.218855297851
 31
0.0
  0
LINE
  5
AE5C
330
1F
100
AcDbEntity
  8
0
 48
0.3
100
AcDbLine
 10
421.4138405271317
 20
1233.009693283984
 30
0.0
 11
421.4845739939926
 21
1232.968855297851
 31
0.0
  0
LWPOLYLINE
  5
AE5D
330
1F
100
AcDbEntity
  8
0
 48
0.3
100
AcDbPolyline
 90
        2
 70
     0
 43
0.0
 10
421.4845739939926
 20
1232.968855297851
 10
422.6763914111823
 20
1233.742830578279
  0
LINE
  5
AE5E
330
1F
100
AcDbEntity
  8
0
 48
0.3
100
AcDbLine
 10
422.0300162772789
 20
1244.02346658762
 30
0.0
 11
417.5523313859938
 21
1235.239136626098
 31
0.0
  0
LINE
  5
AE5F
330
1F
100
AcDbEntity
  8
0
 48
0.3
100
AcDbLine
 10
422.1649368841213
 20
1242.62018272003
 30
0.0
 11
418.6917496989613
 21
1235.870885454664
 31
0.0
  0
LWPOLYLINE
  5
AE60
330
1F
100
AcDbEntity
  8
0
 48
0.3
100
AcDbPolyline
 90
        2
 70
     0
 43
0.0
 10
417.4430861308058
 20
1236.673653879488
 10
417.5172030950248
 20
1235.259417954345
  0
LWPOLYLINE
  5
AE61
330
1F
100
AcDbEntity
  8
0
 48
0.3
100
AcDbPolyline
 90
        4
 70
     0
 43
0.0
 10
417.5874596769629
 20
1235.218855297851
 10
418.5872857954598
 20
1235.86814997108
 42
-0.5755139880968628
 10
418.7415822809056
 20
1235.790066994367
 10
418.8157643157784
 20
1234.509693283984
  0
LINE
  5
AE62
330
1F
100
AcDbEntity
  8
0
 48
0.3
100
AcDbLine
 10
417.5172030950246
 20
1235.259417954345
 30
0.0
 11
417.5874596769629
 21
1235.218855297851
 31
0.0
  0
LINE
  5
AE63
330
1F
100
AcDbEntity
  8
0
 48
0.3
100
AcDbLine
 10
418.8157643157784
 20
1234.509693283984
 30
0.0
 11
418.8864977826395
 21
1234.468855297851
 31
0.0
  0
LWPOLYLINE
  5
AE64
330
1F
100
AcDbEntity
  8
0
 48
0.3
100
AcDbPolyline
 90
        2
 70
     0
 43
0.0
 10
418.8864977826395
 20
1234.468855297851
 10
420.0783151998289
 20
1235.242830578279
  0
LINE
  5
AE65
330
1F
100
AcDbEntity
  8
0
 48
0.3
100
AcDbLine
 10
421.995587996719
 20
1244.043343764669
 30
0.0
 11
422.0644445578389
 21
1244.003589410571
 31
0.0
  0
LINE
  5
AE66
330
1F
100
AcDbEntity
  8
Object
 62
     0
 48
0.5
100
AcDbLine
 10
419.3087173436889
 20
1239.909847990048
 30
0.0
 11
421.8087173436891
 21
1244.23997500897
 31
0.0
  0
LWPOLYLINE
  5
AE67
330
1F
100
AcDbEntity
  8
0
 48
0.3
100
AcDbPolyline
 90
        2
 70
     0
 43
0.0
 10
424.5936642080726
 20
1242.543343764669
 10
423.4165125016976
 20
1241.778892508204
  0
LINE
  5
AE68
330
1F
100
AcDbEntity
  8
0
 48
0.3
100
AcDbLine
 10
424.0119167384849
 20
1231.509693283983
 30
0.0
 11
424.0826502053463
 21
1231.468855297851
 31
0.0
  0
LINE
  5
AE69
330
1F
100
AcDbEntity
  8
0
 48
0.3
100
AcDbLine
 10
424.5936642080726
 20
1242.543343764669
 30
0.0
 11
424.6625207691923
 21
1242.503589410572
 31
0.0
  0
LINE
  5
AE6A
330
1F
100
AcDbEntity
  8
0
 48
0.3
100
AcDbLine
 10
423.2946261023958
 20
1243.293343764669
 30
0.0
 11
423.3648826843337
 21
1243.252781108175
 31
0.0
  0
LWPOLYLINE
  5
AE6B
330
1F
100
AcDbEntity
  8
0
 48
0.3
100
AcDbPolyline
 90
        2
 70
     0
 43
0.0
 10
423.4389996485527
 20
1241.838545183032
 10
423.3648826843337
 20
1243.252781108175
  0
LINE
  5
AE6C
330
1F
100
AcDbEntity
  8
0
 48
0.3
100
AcDbLine
 10
424.6280924886323
 20
1242.52346658762
 30
0.0
 11
420.1504075973469
 21
1233.739136626098
 31
0.0
  0
LINE
  5
AE6D
330
1F
100
AcDbEntity
  8
0
 48
0.3
100
AcDbLine
 10
424.7630130954747
 20
1241.12018272003
 30
0.0
 11
421.2898259103146
 21
1234.370885454664
 31
0.0
  0
LWPOLYLINE
  5
AE6E
330
1F
100
AcDbEntity
  8
0
 48
0.3
100
AcDbPolyline
 90
        4
 70
     0
 43
0.0
 10
422.7836120996695
 20
1232.218855297851
 10
423.7834382181666
 20
1232.86814997108
 42
-0.5755139880968628
 10
423.937734703612
 20
1232.790066994367
 10
424.0119167384849
 20
1231.509693283983
  0
LINE
  5
AE6F
330
1F
100
AcDbEntity
  8
0
 48
0.3
100
AcDbLine
 10
423.4389996485527
 20
1241.838545183032
 30
0.0
 11
420.0783151998289
 21
1235.242830578279
 31
0.0
  0
LINE
  5
AE70
330
1F
100
AcDbEntity
  8
0
 48
0.3
100
AcDbLine
 10
423.3297543933647
 20
1243.273062436422
 30
0.0
 11
418.8511310492088
 21
1234.489274290917
 31
0.0
  0
LINE
  5
AE71
330
1F
100
AcDbEntity
  8
0
 48
0.3
100
AcDbLine
 10
423.4018467908829
 20
1241.769368484241
 30
0.0
 11
420.0411623421589
 21
1235.173653879488
 31
0.0
  0
LWPOLYLINE
  5
AE72
330
1F
100
AcDbEntity
  8
0
 48
0.3
100
AcDbPolyline
 90
        4
 70
     0
 43
0.0
 10
423.2946261023958
 20
1243.293343764669
 10
422.2655296180008
 20
1242.62504069357
 42
-0.5828351435596054
 10
422.1111303073019
 20
1242.705314090906
 10
422.0644445578389
 20
1244.003589410571
  0
LINE
  5
AE73
330
1F
100
AcDbEntity
  8
0
 62
     0
 48
0.5
100
AcDbLine
 10
506.3879612342822
 20
1178.664967974382
 30
0.0
 11
515.8879612342825
 21
1195.119450646286
 31
0.0
  0
LINE
  5
AE77
330
1F
100
AcDbEntity
  8
Object
 62
     0
 48
0.5
100
AcDbLine
 10
275.2669637310445
 20
1158.155601658976
 30
0.0
 11
318.5682339202665
 21
1133.155601658976
 31
0.0
  0
LINE
  5
AE78
330
1F
100
AcDbEntity
  8
Object
 62
     0
 48
0.5
100
AcDbLine
 10
315.5682339202667
 20
1127.95944923627
 30
0.0
 11
272.2669637310445
 21
1152.95944923627
 31
0.0
  0
MTEXT
  5
AE79
330
1F
100
AcDbEntity
  8
0
 62
     0
 48
0.5
100
AcDbMText
 10
-1.589114298955792
 20
1276.829706841692
 30
0.0
 40
6.0
 41
29.6755
 71
     1
 72
     5
  1
Ａ
 73
     1
 44
1.0
  0
LWPOLYLINE
  5
AE7A
330
1F
100
AcDbEntity
  8
0
 62
     0
 48
0.5
100
AcDbPolyline
 90
        4
 70
     1
 43
0.0
 10
-3.737961101940527
 20
1278.303196985435
 10
6.450525518190261
 20
1278.303196985435
 10
6.450525518190261
 20
1269.017371031506
 10
-3.737961101940527
 20
1269.017371031506
  0
MTEXT
  5
AE7B
330
1F
100
AcDbEntity
  8
0
 62
     0
 48
0.5
100
AcDbMText
 10
-17.17244329713094
 20
1134.132386584442
 30
0.0
 40
6.0
 41
29.6755
 71
     1
 72
     5
  1
Ａ
 73
     1
 44
1.0
  0
LWPOLYLINE
  5
AE7C
330
1F
100
AcDbEntity
  8
0
 62
     0
 48
0.5
100
AcDbPolyline
 90
        4
 70
     1
 43
0.0
 10
-19.32129010011567
 20
1135.605876728184
 10
-9.132803479984886
 20
1135.605876728184
 10
-9.132803479984886
 20
1126.320050774255
 10
-19.32129010011567
 20
1126.320050774255
  0
MTEXT
  5
AE7D
330
1F
100
AcDbEntity
  8
0
 62
     0
 48
0.5
100
AcDbMText
 10
333.865496445334
 20
1276.829706841692
 30
0.0
 40
6.0
 41
29.6755
 71
     1
 72
     5
  1
Ｂ
 73
     1
 44
1.0
  0
LWPOLYLINE
  5
AE7E
330
1F
100
AcDbEntity
  8
0
 62
     0
 48
0.5
100
AcDbPolyline
 90
        4
 70
     1
 43
0.0
 10
331.7166496423492
 20
1278.303196985435
 10
341.90513626248
 20
1278.303196985435
 10
341.90513626248
 20
1269.017371031506
 10
331.7166496423492
 20
1269.017371031506
  0
MTEXT
  5
AE7F
330
1F
100
AcDbEntity
  8
0
 62
     0
 48
0.5
100
AcDbMText
 10
109.3313637067244
 20
1134.132386584442
 30
0.0
 40
6.0
 41
29.6755
 71
     1
 72
     5
  1
Ｂ
 73
     1
 44
1.0
  0
LWPOLYLINE
  5
AE80
330
1F
100
AcDbEntity
  8
0
 62
     0
 48
0.5
100
AcDbPolyline
 90
        4
 70
     1
 43
0.0
 10
107.1825169037397
 20
1135.605876728184
 10
117.3710035238705
 20
1135.605876728184
 10
117.3710035238705
 20
1126.320050774255
 10
107.1825169037397
 20
1126.320050774255
  0
MTEXT
  5
AE82
330
1F
100
AcDbEntity
  8
0
 62
     0
 48
0.5
100
AcDbMText
 10
382.2142184883141
 20
1276.860169971123
 30
0.0
 40
6.0
 41
29.6755
 71
     1
 72
     5
  1
Ｃ
 73
     1
 44
1.0
  0
LWPOLYLINE
  5
AE83
330
1F
100
AcDbEntity
  8
0
 62
     0
 48
0.5
100
AcDbPolyline
 90
        4
 70
     1
 43
0.0
 10
380.0653716853294
 20
1278.333660114866
 10
390.2538583054602
 20
1278.333660114866
 10
390.2538583054602
 20
1269.047834160937
 10
380.0653716853294
 20
1269.047834160937
  0
LWPOLYLINE
  5
AE84
330
1F
100
AcDbEntity
  8
0
 62
     0
 48
0.5
100
AcDbPolyline
 90
        4
 70
     1
 43
0.0
 10
137.3233435677748
 20
1127.602283435392
 10
147.5118301879056
 20
1127.602283435392
 10
147.5118301879056
 20
1118.316457481463
 10
137.3233435677748
 20
1118.316457481463
  0
MTEXT
  5
AE85
330
1F
100
AcDbEntity
  8
0
 62
     0
 48
0.5
100
AcDbMText
 10
139.4721903707595
 20
1126.12879329165
 30
0.0
 40
6.0
 41
29.6755
 71
     1
 72
     5
  1
Ｃ
 73
     1
 44
1.0
  0
LWPOLYLINE
  5
AE86
330
1F
100
AcDbEntity
  8
0
 62
     0
 48
0.5
100
AcDbPolyline
 90
        4
 70
     1
 43
0.0
 10
545.1140179577655
 20
1041.073490766475
 10
555.3025045778963
 20
1041.073490766475
 10
555.3025045778963
 20
1031.787664812546
 10
545.1140179577655
 20
1031.787664812546
  0
MTEXT
  5
AE87
330
1F
100
AcDbEntity
  8
0
 62
     0
 48
0.5
100
AcDbMText
 10
547.2628647607503
 20
1039.600000622733
 30
0.0
 40
6.0
 41
29.6755
 71
     1
 72
     5
  1
Ｄ
 73
     1
 44
1.0
  0
LWPOLYLINE
  5
AE88
330
1F
100
AcDbEntity
  8
0
 62
     0
 48
0.5
100
AcDbPolyline
 90
        4
 70
     1
 43
0.0
 10
405.2817123330546
 20
970.0729991447238
 10
415.4701989531854
 20
970.0729991447238
 10
415.4701989531854
 20
960.7871731907945
 10
405.2817123330546
 20
960.7871731907945
  0
MTEXT
  5
AE89
330
1F
100
AcDbEntity
  8
0
 62
     0
 48
0.5
100
AcDbMText
 10
407.4305591360394
 20
968.5995090009809
 30
0.0
 40
6.0
 41
29.6755
 71
     1
 72
     5
  1
Ｄ
 73
     1
 44
1.0
  0
MTEXT
  5
AE8A
330
1F
100
AcDbEntity
  8
0
 62
     0
 48
0.5
100
AcDbMText
 10
469.4353322457319
 20
1231.855292573294
 30
0.0
 40
6.0
 41
0.0
 71
     1
 72
     1
  1
端子金具（長さ調整可）
 73
     1
 44
1.0
  0
MTEXT
  5
AE8B
330
1F
100
AcDbEntity
  8
0
 62
     0
 48
0.5
100
AcDbMText
 10
358.4076411112119
 20
1129.411536112702
 30
0.0
 40
6.0
 41
0.0
 71
     1
 72
     1
  1
防犯カバー
 73
     1
 44
1.0
  0
MTEXT
  5
AE8C
330
1F
100
AcDbEntity
  8
0
 62
     0
 48
0.5
100
AcDbMText
 10
423.9429554816956
 20
1088.203655343548
 30
0.0
 40
6.0
 41
0.0
 71
     1
 72
     1
  1
M10スレッド
 73
     1
 44
1.0
  0
MTEXT
  5
AE8D
330
1F
100
AcDbEntity
  8
0
 62
     0
 48
0.5
100
AcDbMText
 10
478.097661934496
 20
1058.730178583778
 30
0.0
 40
6.0
 41
0.0
 71
     1
 72
     1
  1
スレッドスリーブ
 73
     1
 44
1.0
  0
LEADER
  5
AE8E
330
1F
100
AcDbEntity
  8
0
 62
     0
 48
0.5
100
AcDbLeader
  3
ISO-25
 73
     0
 40
6.0
 41
37.59999999999999
 76
     3
 10
574.6001638722825
 20
1023.659473531663
 30
0.0
 10
590.0589160901404
 20
1049.207551005592
 30
0.0
 10
596.0567967903767
 20
1049.207551005592
 30
0.0
340
AE8F
213
0.0
223
-3.0
233
0.0
1001
ACAD
1000
DSTYLE
1002
{
1070
   147
1040
3.0
1070
    77
1070
     0
1002
}
  0
MTEXT
  5
AE8F
102
{ACAD_REACTORS
330
AE8E
102
}
330
1F
100
AcDbEntity
  8
0
 62
     0
 48
0.5
100
AcDbMText
 10
599.0567967903766
 20
1052.207551005592
 30
0.0
 40
6.0
 41
0.0
 71
     1
 72
     1
  1
M10ボルト
 73
     1
 44
1.0
  0
LEADER
  5
AE90
330
1F
100
AcDbEntity
  8
0
 62
     0
 48
0.5
100
AcDbLeader
  3
ISO-25
 73
     0
 40
6.000000000000001
 41
56.62857142857142
 76
     3
 10
587.9758831589586
 20
1003.659473531663
 30
0.0
 10
603.0828694658725
 20
986.4615531959202
 30
0.0
 10
606.2869311001236
 20
986.4615531959202
 30
0.0
340
AE91
213
0.0
223
-3.0
233
0.0
1001
ACAD
1000
DSTYLE
1002
{
1070
   147
1040
3.0
1070
    77
1070
     0
1002
}
  0
MTEXT
  5
AE91
102
{ACAD_REACTORS
330
AE90
102
}
330
1F
100
AcDbEntity
  8
0
 62
     0
 48
0.5
100
AcDbMText
 10
609.2869311001236
 20
989.4615531959201
 30
0.0
 40
6.0
 41
0.0
 71
     1
 72
     1
  1
ボルト頭キャップ
 73
     1
 44
1.0
  0
MTEXT
  5
AE92
330
1F
100
AcDbEntity
  8
0
 62
     0
 48
0.5
100
AcDbMText
 10
384.8435864790221
 20
1085.712534022388
 30
0.0
 40
3.0
 41
43.43939999999999
 71
     1
 72
     5
  1
支柱側
 11
0.5000000000000005
 21
0.8660254037844383
 31
0.0
 73
     1
 44
1.0
  0
VIEWPORT
  5
2F
330
1B
100
AcDbEntity
 67
     1
  8
0
100
AcDbViewport
 10
210.8645862540714
 20
149.7815185269692
 30
0.0
 40
479.1862016322689
 41
324.9607266531437
 68
     1
 69
     1
 12
210.8645862540714
 22
149.7815185269692
 13
0.0
 23
0.0
 14
10.0
 24
10.0
 15
10.0
 25
10.0
 16
0.0
 26
0.0
 36
1.0
 17
0.0
 27
0.0
 37
0.0
 42
50.0
 43
0.0
 44
0.0
 45
324.9607266531437
 50
0.0
 51
0.0
 72
   100
 90
    32800
  1

281
     0
 71
     1
 74
     0
110
0.0
120
0.0
130
0.0
111
1.0
121
0.0
131
0.0
112
0.0
122
1.0
132
0.0
 79
     0
146
0.0
  0
LWPOLYLINE
  5
AA
330
1B
100
AcDbEntity
 67
     1
  8
２
 62
     0
100
AcDbPolyline
 90
        4
 70
     1
 43
0.0
 10
1.042221639059562
 20
284.1844718556203
 10
407.757958684845
 20
284.1844718556203
 10
407.757958684845
 20
1.08829855961801
 10
1.042221639059562
 20
1.08829855961801
  0
MTEXT
  5
DC
330
1B
100
AcDbEntity
 67
     1
  8
２
 62
     0
100
AcDbMText
 10
275.257958684845
 20
4.588298559618024
 30
0.0
 40
3.0
 41
55.0
 71
     5
 72
     5
  1
{\fMS UI Gothic|b0|i0|c128|p50;株式会社 アルティマ}
 73
     1
 44
1.0
  0
LINE
  5
DD
330
1B
100
AcDbEntity
 67
     1
  8
２
 62
     0
100
AcDbLine
 10
262.757958684845
 20
8.088298559618039
 30
0.0
 11
302.757958684845
 21
8.088298559618039
 31
0.0
  0
LINE
  5
DE
330
1B
100
AcDbEntity
 67
     1
  8
２
 62
     0
100
AcDbLine
 10
342.7579586848451
 20
23.08829855961798
 30
0.0
 11
247.757958684845
 21
23.08829855961792
 31
0.0
  0
LINE
  5
DF
330
1B
100
AcDbEntity
 67
     1
  8
２
 62
     0
100
AcDbLine
 10
247.7579586848449
 20
18.08829855961798
 30
0.0
 11
342.7579586848451
 21
18.08829855961798
 31
0.0
  0
LINE
  5
E0
330
1B
100
AcDbEntity
 67
     1
  8
２
 62
     0
100
AcDbLine
 10
342.7579586848451
 20
13.08829855961801
 30
0.0
 11
247.7579586848451
 21
13.08829855961798
 31
0.0
  0
LINE
  5
E1
330
1B
100
AcDbEntity
 67
     1
  8
２
 62
     0
100
AcDbLine
 10
352.757958684845
 20
8.08829855961801
 30
0.0
 11
252.8023834435082
 21
8.088298559618039
 31
0.0
  0
LINE
  5
E2
330
1B
100
AcDbEntity
 67
     1
  8
２
 62
     0
100
AcDbLine
 10
407.7579586848449
 20
28.08829855961801
 30
0.0
 11
247.7579586848449
 21
28.08829855961803
 31
0.0
  0
MTEXT
  5
E3
330
1B
100
AcDbEntity
 67
     1
  8
２
 62
     0
100
AcDbMText
 10
255.2579586848449
 20
25.58829855961798
 30
0.0
 40
2.0
 41
15.0
 71
     5
 72
     5
  1
{\fMS UI Gothic|b0|i0|c128|p50;パーツ}
 73
     1
 44
1.0
  0
LINE
  5
E4
330
1B
100
AcDbEntity
 67
     1
  8
２
 62
     0
100
AcDbLine
 10
247.7579586848449
 20
8.088298559618039
 30
0.0
 11
262.757958684845
 21
8.088298559618039
 31
0.0
  0
LINE
  5
E5
330
1B
100
AcDbEntity
 67
     1
  8
２
 62
     0
100
AcDbLine
 10
247.7579586848451
 20
13.08829855961798
 30
0.0
 11
247.7579586848449
 21
18.08829855961798
 31
0.0
  0
LINE
  5
E6
330
1B
100
AcDbEntity
 67
     1
  8
２
 62
     0
100
AcDbLine
 10
247.7579586848449
 20
28.08829855961803
 30
0.0
 11
247.7579586848449
 21
9.237389132921862
 31
0.0
  0
LINE
  5
E7
330
1B
100
AcDbEntity
 67
     1
  8
２
 62
     0
100
AcDbLine
 10
247.7579586848449
 20
9.237389132921862
 30
0.0
 11
247.7579586848449
 21
1.088298559618039
 31
0.0
  0
LINE
  5
E8
330
1B
100
AcDbEntity
 67
     1
  8
２
 62
     0
100
AcDbLine
 10
262.757958684845
 20
8.088298559618039
 30
0.0
 11
262.757958684845
 21
28.08829855961803
 31
0.0
  0
LINE
  5
EC
330
1B
100
AcDbEntity
 67
     1
  8
２
 62
     0
100
AcDbLine
 10
407.757958684845
 20
8.08829855961801
 30
0.0
 11
352.757958684845
 21
8.08829855961801
 31
0.0
  0
MTEXT
  5
ED
330
1B
100
AcDbEntity
 67
     1
  8
２
 62
     0
 48
0.3
100
AcDbMText
 10
317.7579586848451
 20
4.370495529314986
 30
0.0
 40
2.0
 41
20.0
 71
     5
 72
     5
  1
E.Nomura
 73
     1
 44
1.0
  0
MTEXT
  5
EE
330
1B
100
AcDbEntity
 67
     1
  8
２
 62
     0
100
AcDbMText
 10
322.7579586848449
 20
25.588298559618
 30
0.0
 40
2.0
 41
40.0
 71
     5
 72
     5
  1
{\fMS UI Gothic|b0|i0|c128|p50;処　　　理}
 73
     1
 44
1.0
  0
LINE
  5
EF
330
1B
100
AcDbEntity
 67
     1
  8
２
 62
     0
100
AcDbLine
 10
327.757958684845
 20
1.08829855961801
 30
0.0
 11
307.7579586848451
 21
1.08829855961801
 31
0.0
  0
MTEXT
  5
F0
330
1B
100
AcDbEntity
 67
     1
  8
２
 62
     0
100
AcDbMText
 10
282.7579586848449
 20
25.58829855961799
 30
0.0
 40
2.0
 41
40.0
 71
     5
 72
     5
  1
{\fMS UI Gothic|b0|i0|c128|p50;材　　　質}
 73
     1
 44
1.0
  0
LINE
  5
F1
330
1B
100
AcDbEntity
 67
     1
  8
２
 62
     0
100
AcDbLine
 10
302.757958684845
 20
8.088298559618039
 30
0.0
 11
302.757958684845
 21
28.08829855961803
 31
0.0
  0
MTEXT
  5
F2
330
1B
100
AcDbEntity
 67
     1
  8
２
 62
     0
100
AcDbMText
 10
305.2690710641766
 20
4.588298559618021
 30
0.0
 40
2.0
 41
4.9778
 71
     5
 72
     5
  1
{\fMS UI Gothic|b0|i0|c128|p50;製\P図}
 73
     1
 44
1.0
  0
LINE
  5
F3
330
1B
100
AcDbEntity
 67
     1
  8
２
 62
     0
100
AcDbLine
 10
302.757958684845
 20
8.088298559618039
 30
0.0
 11
302.757958684845
 21
1.08829855961801
 31
0.0
  0
LINE
  5
F4
330
1B
100
AcDbEntity
 67
     1
  8
２
 62
     0
100
AcDbLine
 10
307.7579586848451
 20
1.08829855961801
 30
0.0
 11
307.7579586848451
 21
8.08829855961801
 31
0.0
  0
LINE
  5
F5
330
1B
100
AcDbEntity
 67
     1
  8
２
 62
     0
100
AcDbLine
 10
307.7579586848451
 20
8.08829855961801
 30
0.0
 11
302.757958684845
 21
8.088298559618039
 31
0.0
  0
MTEXT
  5
F6
330
1B
100
AcDbEntity
 67
     1
  8
２
 62
     0
100
AcDbMText
 10
347.7579586848451
 20
18.08829855961802
 30
0.0
 40
2.5
 41
10.0
 71
     5
 72
     5
  1
{\fMS UI Gothic|b0|i0|c128|p50;品\P\P名}
 73
     1
 44
1.0
  0
MTEXT
  5
F7
330
1B
100
AcDbEntity
 67
     1
  8
２
 62
     0
100
AcDbMText
 10
347.7579586848451
 20
4.588298559618021
 30
0.0
 40
2.0
 41
10.0
 71
     5
 72
     5
  1
{\fMS UI Gothic|b0|i0|c128|p50;品番}
 73
     1
 44
1.0
  0
LINE
  5
F8
330
1B
100
AcDbEntity
 67
     1
  8
２
 62
     0
100
AcDbLine
 10
342.7579586848451
 20
28.08829855961801
 30
0.0
 11
352.757958684845
 21
28.08829855961801
 31
0.0
  0
LINE
  5
F9
330
1B
100
AcDbEntity
 67
     1
  8
２
 62
     0
100
AcDbLine
 10
352.757958684845
 20
1.08829855961801
 30
0.0
 11
342.7579586848451
 21
1.08829855961801
 31
0.0
  0
LINE
  5
FA
330
1B
100
AcDbEntity
 67
     1
  8
２
 62
     0
100
AcDbLine
 10
342.7579586848451
 20
1.08829855961801
 30
0.0
 11
342.7579586848451
 21
28.08829855961801
 31
0.0
  0
LINE
  5
FB
330
1B
100
AcDbEntity
 67
     1
  8
２
 62
     0
100
AcDbLine
 10
342.7579586848451
 20
1.08829855961801
 30
0.0
 11
332.7579586848451
 21
1.08829855961801
 31
0.0
  0
MTEXT
  5
FC
330
1B
100
AcDbEntity
 67
     1
  8
２
 62
     0
100
AcDbMText
 10
330.2579586848451
 20
4.588298559618017
 30
0.0
 40
2.0
 41
5.0
 71
     5
 72
     5
  1
{\fMS UI Gothic|b0|i0|c128|p50;縮\P尺}
 73
     1
 44
1.0
  0
LINE
  5
FD
330
1B
100
AcDbEntity
 67
     1
  8
２
 62
     0
100
AcDbLine
 10
327.757958684845
 20
8.08829855961801
 30
0.0
 11
327.757958684845
 21
1.08829855961801
 31
0.0
  0
LINE
  5
FE
330
1B
100
AcDbEntity
 67
     1
  8
２
 62
     0
100
AcDbLine
 10
332.7579586848451
 20
1.08829855961801
 30
0.0
 11
332.7579586848451
 21
8.08829855961801
 31
0.0
  0
LINE
  5
FF
330
1B
100
AcDbEntity
 67
     1
  8
２
 62
     0
100
AcDbLine
 10
332.7579586848451
 20
8.08829855961801
 30
0.0
 11
327.757958684845
 21
8.08829855961801
 31
0.0
  0
LINE
  5
100
330
1B
100
AcDbEntity
 67
     1
  8
２
 62
     0
100
AcDbLine
 10
342.7579586848451
 20
8.08829855961801
 30
0.0
 11
342.7579586848451
 21
13.08829855961801
 31
0.0
  0
LINE
  5
101
330
1B
100
AcDbEntity
 67
     1
  8
２
 62
     0
100
AcDbLine
 10
342.7579586848451
 20
18.08829855961798
 30
0.0
 11
342.7579586848451
 21
23.08829855961798
 31
0.0
  0
LINE
  5
102
330
1B
100
AcDbEntity
 67
     1
  8
２
 62
     0
100
AcDbLine
 10
352.757958684845
 20
28.08829855961801
 30
0.0
 11
352.757958684845
 21
8.08829855961801
 31
0.0
  0
LINE
  5
103
330
1B
100
AcDbEntity
 67
     1
  8
２
 62
     0
100
AcDbLine
 10
352.757958684845
 20
8.08829855961801
 30
0.0
 11
352.757958684845
 21
1.08829855961801
 31
0.0
  0
LINE
  5
104
330
1B
100
AcDbEntity
 67
     1
  8
２
 62
     0
100
AcDbLine
 10
407.757958684845
 20
1.08829855961801
 30
0.0
 11
407.7579586848449
 21
28.08829855961801
 31
0.0
  0
LINE
  5
105
330
1B
100
AcDbEntity
 67
     1
  8
２
 62
     0
100
AcDbLine
 10
407.757958684845
 20
1.08829855961801
 30
0.0
 11
407.757958684845
 21
8.08829855961801
 31
0.0
  0
LINE
  5
10E
330
1B
100
AcDbEntity
 67
     1
  8
２
 62
     0
 48
0.3
100
AcDbLine
 10
348.1319795129643
 20
277.1869416790318
 30
0.0
 11
407.82803226079
 21
277.1869416790318
 31
0.0
  0
LINE
  5
10F
330
1B
100
AcDbEntity
 67
     1
  8
２
 62
     0
 48
0.3
100
AcDbLine
 10
348.1319795129643
 20
277.1869416790318
 30
0.0
 11
348.1319795129643
 21
284.1844718556203
 31
0.0
  0
LINE
  5
111
330
1B
100
AcDbEntity
 67
     1
  8
２
 62
     0
 48
0.3
100
AcDbLine
 10
358.9855818391189
 20
284.1844718556203
 30
0.0
 11
358.9855818391189
 21
277.1869416790318
 31
0.0
  0
MTEXT
  5
112
330
1B
100
AcDbEntity
 67
     1
  8
２
 62
     0
100
AcDbMText
 10
255.2579586848451
 20
10.58829855961801
 30
0.0
 40
2.5
 41
15.0
 71
     5
 72
     5
  1
{\fMS UI Gothic|b0|i0|c128|p17;１}
 73
     1
 44
1.0
  0
MTEXT
  5
113
330
1B
100
AcDbEntity
 67
     1
  8
２
 62
     0
100
AcDbMText
 10
255.2579586848449
 20
15.58829855961798
 30
0.0
 40
2.5
 41
15.0
 71
     5
 72
     5
  1
{\fMS UI Gothic|b0|i0|c128|p17;２}
 73
     1
 44
1.0
  0
MTEXT
  5
114
330
1B
100
AcDbEntity
 67
     1
  8
２
 62
     0
100
AcDbMText
 10
255.257958684845
 20
20.58829855961795
 30
0.0
 40
2.5
 41
15.0
 71
     5
 72
     5
  1
{\fMS UI Gothic|b0|i0|c128|p17;３}
 73
     1
 44
1.0
  0
MTEXT
  5
115
330
1B
100
AcDbEntity
 67
     1
  8
２
 62
     0
100
AcDbMText
 10
353.5587795129643
 20
280.6857067673261
 30
0.0
 40
2.5
 41
10.8536
 71
     5
 72
     5
  1
{\fMS UI Gothic|b0|i0|c128|p17;日付}
 73
     1
 44
1.0
  0
MTEXT
  5
1DD
330
1B
100
AcDbEntity
 67
     1
  8
１
100
AcDbMText
 10
187.6389970102438
 20
148.8327383458293
 30
0.0
 40
2.5
 41
0.0
 71
     9
 72
     1
  1

  7
ｽﾀｲﾙ1
 73
     1
 44
1.0
  0
MTEXT
  5
1DF
330
1B
100
AcDbEntity
 67
     1
  8
１
100
AcDbMText
 10
125.9251163363451
 20
100.1557259194321
 30
0.0
 40
2.5
 41
0.0
 71
     9
 72
     1
  1

  7
ｽﾀｲﾙ1
 73
     1
 44
1.0
  0
MTEXT
  5
1F5
330
1B
100
AcDbEntity
 67
     1
  8
１
100
AcDbMText
 10
95.93852678293661
 20
241.1781167614512
 30
0.0
 40
2.5
 41
0.0
 71
     1
 72
     1
  1

  7
ｽﾀｲﾙ1
 73
     1
 44
1.0
  0
MTEXT
  5
1F7
330
1B
100
AcDbEntity
 67
     1
  8
１
100
AcDbMText
 10
103.8845037960281
 20
221.796204377297
 30
0.0
 40
2.5
 41
0.0
 71
     1
 72
     1
  1

  7
ｽﾀｲﾙ1
 73
     1
 44
1.0
  0
ENDSEC
  0
SECTION
  2
OBJECTS
  0
DICTIONARY
  5
C
330
0
100
AcDbDictionary
281
     1
  3
ACAD_GROUP
350
D
  3
ACAD_IMAGE_VARS
350
2B
  3
ACAD_LAYOUT
350
1A
  3
ACAD_MLINESTYLE
350
17
  3
ACAD_PLOTSETTINGS
350
19
  3
ACAD_PLOTSTYLENAME
350
E
  3
AcadDim
350
9468
  3
AcDbVariableDictionary
350
65AD
  3
DWGPROPS
350
7E1
  0
DICTIONARY
  5
D
102
{ACAD_REACTORS
330
C
102
}
330
C
100
AcDbDictionary
281
     1
  0
RASTERVARIABLES
  5
2B
102
{ACAD_REACTORS
330
C
102
}
330
C
100
AcDbRasterVariables
 90
        0
 70
     1
 71
     1
 72
     1
  0
DICTIONARY
  5
1A
102
{ACAD_REACTORS
330
C
102
}
330
C
100
AcDbDictionary
281
     1
  3
Model
350
22
  3
ﾚｲｱｳﾄ1
350
1E
  3
ﾚｲｱｳﾄ2
350
26
  0
DICTIONARY
  5
17
102
{ACAD_REACTORS
330
C
102
}
330
C
100
AcDbDictionary
281
     1
  3
Standard
350
18
  0
DICTIONARY
  5
19
102
{ACAD_REACTORS
330
C
102
}
330
C
100
AcDbDictionary
281
     1
  0
ACDBDICTIONARYWDFLT
  5
E
102
{ACAD_REACTORS
330
C
102
}
330
C
100
AcDbDictionary
281
     1
  3
Normal
350
F
100
AcDbDictionaryWithDefault
340
F
  0
XRECORD
  5
9468
102
{ACAD_REACTORS
330
C
102
}
330
C
100
AcDbXrecord
280
     1
 90
   990106
  3

 60
     0
 61
     0
 62
     1
 63
     3
 64
     0
 65
     0
 66
     0
 67
     3
 68
     1
 69
     0
 70
     0
 71
     0
 72
     0
 40
20.43801309868158
170
     0
340
AE91
  0
DICTIONARY
  5
65AD
102
{ACAD_REACTORS
330
C
102
}
330
C
100
AcDbDictionary
281
     1
  3
SORTENTS
350
65AE
  0
XRECORD
  5
7E1
102
{ACAD_REACTORS
330
C
102
}
330
C
100
AcDbXrecord
280
     1
  1
DWGPROPS COOKIE
  2

  3

  4

  6

  7

  8

  9

300
=
301
=
302
=
303
=
304
=
305
=
306
=
307
=
308
=
309
=
 40
0.1525764814814815
 41
2454873.622250069
 42
2455268.41966037
  1

 90
        0
  0
LAYOUT
  5
22
102
{ACAD_REACTORS
330
1A
102
}
330
1A
100
AcDbPlotSettings
  1

  2
RICOH IPSiO G515
  4
A3
  6

 40
5.873749732971191
 41
5.873747825622558
 42
5.873748779296875
 43
5.873748779296875
 44
296.9259948730469
 45
419.9466552734374
 46
0.0
 47
0.0
 48
0.0
 49
0.0
140
0.0
141
0.0
142
1.0
143
1.959971811730723
 70
 11952
 72
     1
 73
     1
 74
     1
  7

 75
     0
147
0.5102114193759578
148
117.6657051803588
149
-817.5266692991444
100
AcDbLayout
  1
Model
 70
     1
 71
     0
 10
0.0
 20
0.0
 11
12.0
 21
9.0
 12
0.0
 22
0.0
 32
0.0
 14
0.0
 24
0.0
 34
0.0
 15
0.0
 25
0.0
 35
0.0
146
0.0
 13
0.0
 23
0.0
 33
0.0
 16
1.0
 26
0.0
 36
0.0
 17
0.0
 27
1.0
 37
0.0
 76
     0
330
1F
  0
LAYOUT
  5
1E
102
{ACAD_REACTORS
330
1A
102
}
330
1A
100
AcDbPlotSettings
  1

  2
RICOH imagio MP C3500 RPCS
  4
A3
  6

 40
5.873749732971191
 41
5.873747825622558
 42
5.873748779296875
 43
5.873748779296875
 44
296.9259948730469
 45
419.9466552734374
 46
0.0
 47
0.0
 48
0.0
 49
0.0
140
0.0
141
0.0
142
1.0
143
1.0
 70
   688
 72
     1
 73
     1
 74
     5
  7

 75
    16
147
1.0
148
0.0
149
0.0
100
AcDbLayout
  1
ﾚｲｱｳﾄ1
 70
     1
 71
     1
 10
-5.873748779296875
 20
-5.873749732971191
 11
414.0729064941406
 21
291.0522451400757
 12
0.0
 22
0.0
 32
0.0
 14
1.042221639059562
 24
1.08829855961801
 34
0.0
 15
407.82803226079
 25
284.1844718556203
 35
0.0
146
0.0
 13
0.0
 23
0.0
 33
0.0
 16
1.0
 26
0.0
 36
0.0
 17
0.0
 27
1.0
 37
0.0
 76
     0
330
1B
331
2F
  0
LAYOUT
  5
26
102
{ACAD_REACTORS
330
1A
102
}
330
1A
100
AcDbPlotSettings
  1

  2
RICOH imagio Neo C380 RPCS
  4

  6

 40
0.0
 41
0.0
 42
0.0
 43
0.0
 44
0.0
 45
0.0
 46
0.0
 47
0.0
 48
0.0
 49
0.0
140
0.0
141
0.0
142
1.0
143
1.0
 70
   688
 72
     0
 73
     1
 74
     5
  7

 75
    16
147
1.0
148
0.0
149
0.0
100
AcDbLayout
  1
ﾚｲｱｳﾄ2
 70
     1
 71
     2
 10
0.0
 20
0.0
 11
0.0
 21
0.0
 12
0.0
 22
0.0
 32
0.0
 14
0.0
 24
0.0
 34
0.0
 15
0.0
 25
0.0
 35
0.0
146
0.0
 13
0.0
 23
0.0
 33
0.0
 16
1.0
 26
0.0
 36
0.0
 17
0.0
 27
1.0
 37
0.0
 76
     0
330
23
331
922
  0
MLINESTYLE
  5
18
102
{ACAD_REACTORS
330
17
102
}
330
17
100
AcDbMlineStyle
  2
STANDARD
 70
     0
  3

 62
   256
 51
90.0
 52
90.0
 71
     2
 49
0.5
 62
   256
  6
BYLAYER
 49
-0.5
 62
   256
  6
BYLAYER
  0
ACDBPLACEHOLDER
  5
F
102
{ACAD_REACTORS
330
E
102
}
330
E
  0
DICTIONARYVAR
  5
65AE
102
{ACAD_REACTORS
330
65AD
102
}
330
65AD
100
DictionaryVariables
280
     0
  1
96
  0
ENDSEC
  0
EOF
