  0
SECTION
  2
HEADER
  9
$ACADVER
  1
AC1015
  9
$ACADMAINTVER
 70
     6
  9
$DWGCODEPAGE
  3
ANSI_932
  9
$INSBASE
 10
0.0
 20
0.0
 30
0.0
  9
$EXTMIN
 10
-117.6069841392893
 20
817.5308658634675
 30
0.0
  9
$EXTMAX
 10
682.3930158607106
 20
1367.530865863467
 30
0.0
  9
$LIMMIN
 10
0.0
 20
0.0
  9
$LIMMAX
 10
420.0
 20
297.0
  9
$ORTHOMODE
 70
     0
  9
$REGENMODE
 70
     1
  9
$FILLMODE
 70
     1
  9
$QTEXTMODE
 70
     0
  9
$MIRRTEXT
 70
     1
  9
$LTSCALE
 40
1.0
  9
$ATTMODE
 70
     1
  9
$TEXTSIZE
 40
2.5
  9
$TRACEWID
 40
1.0
  9
$TEXTSTYLE
  7
Standard
  9
$CLAYER
  8
0
  9
$CELTYPE
  6
ByLayer
  9
$CECOLOR
 62
     0
  9
$CELTSCALE
 40
0.5
  9
$DISPSILH
 70
     0
  9
$DIMSCALE
 40
1.0
  9
$DIMASZ
 40
5.0
  9
$DIMEXO
 40
2.0
  9
$DIMDLI
 40
3.75
  9
$DIMRND
 40
0.0
  9
$DIMDLE
 40
0.0
  9
$DIMEXE
 40
5.0
  9
$DIMTP
 40
0.0
  9
$DIMTM
 40
0.0
  9
$DIMTXT
 40
6.0
  9
$DIMCEN
 40
2.5
  9
$DIMTSZ
 40
0.0
  9
$DIMTOL
 70
     0
  9
$DIMLIM
 70
     0
  9
$DIMTIH
 70
     0
  9
$DIMTOH
 70
     0
  9
$DIMSE1
 70
     0
  9
$DIMSE2
 70
     0
  9
$DIMTAD
 70
     1
  9
$DIMZIN
 70
     8
  9
$DIMBLK
  1

  9
$DIMASO
 70
     1
  9
$DIMSHO
 70
     1
  9
$DIMPOST
  1

  9
$DIMAPOST
  1

  9
$DIMALT
 70
     0
  9
$DIMALTD
 70
     3
  9
$DIMALTF
 40
0.1
  9
$DIMLFAC
 40
1.0
  9
$DIMTOFL
 70
     1
  9
$DIMTVP
 40
0.0
  9
$DIMTIX
 70
     0
  9
$DIMSOXD
 70
     0
  9
$DIMSAH
 70
     0
  9
$DIMBLK1
  1

  9
$DIMBLK2
  1

  9
$DIMSTYLE
  2
ISO-25
  9
$DIMCLRD
 70
     7
  9
$DIMCLRE
 70
     7
  9
$DIMCLRT
 70
     0
  9
$DIMTFAC
 40
1.0
  9
$DIMGAP
 40
3.0
  9
$DIMJUST
 70
     0
  9
$DIMSD1
 70
     0
  9
$DIMSD2
 70
     0
  9
$DIMTOLJ
 70
     0
  9
$DIMTZIN
 70
     8
  9
$DIMALTZ
 70
     0
  9
$DIMALTTZ
 70
     0
  9
$DIMUPT
 70
     0
  9
$DIMDEC
 70
     2
  9
$DIMTDEC
 70
     2
  9
$DIMALTU
 70
     2
  9
$DIMALTTD
 70
     3
  9
$DIMTXSTY
  7
Standard
  9
$DIMAUNIT
 70
     0
  9
$DIMADEC
 70
     0
  9
$DIMALTRND
 40
0.0
  9
$DIMAZIN
 70
     0
  9
$DIMDSEP
 70
    46
  9
$DIMATFIT
 70
     3
  9
$DIMFRAC
 70
     0
  9
$DIMLDRBLK
  1

  9
$DIMLUNIT
 70
     2
  9
$DIMLWD
 70
     9
  9
$DIMLWE
 70
     9
  9
$DIMTMOVE
 70
     0
  9
$LUNITS
 70
     2
  9
$LUPREC
 70
     4
  9
$SKETCHINC
 40
1.0
  9
$FILLETRAD
 40
2.0
  9
$AUNITS
 70
     0
  9
$AUPREC
 70
     0
  9
$MENU
  1
.
  9
$ELEVATION
 40
0.0
  9
$PELEVATION
 40
0.0
  9
$THICKNESS
 40
0.0
  9
$LIMCHECK
 70
     0
  9
$CHAMFERA
 40
0.1
  9
$CHAMFERB
 40
0.1
  9
$CHAMFERC
 40
20.0
  9
$CHAMFERD
 40
0.0
  9
$SKPOLY
 70
     0
  9
$TDCREATE
 40
2454873.622250069
  9
$TDUCREATE
 40
2454873.247250069
  9
$TDUPDATE
 40
2459635.595402129
  9
$TDUUPDATE
 40
2459635.220402129
  9
$TDINDWG
 40
0.7647546991
  9
$TDUSRTIMER
 40
0.7647546991
  9
$USRTIMER
 70
     1
  9
$ANGBASE
 50
0.0
  9
$ANGDIR
 70
     0
  9
$PDMODE
 70
     0
  9
$PDSIZE
 40
0.0
  9
$PLINEWID
 40
0.0
  9
$SPLFRAME
 70
     0
  9
$SPLINETYPE
 70
     6
  9
$SPLINESEGS
 70
     8
  9
$HANDSEED
  5
AC5E
  9
$SURFTAB1
 70
     6
  9
$SURFTAB2
 70
     6
  9
$SURFTYPE
 70
     6
  9
$SURFU
 70
     6
  9
$SURFV
 70
     6
  9
$UCSBASE
  2

  9
$UCSNAME
  2

  9
$UCSORG
 10
0.0
 20
0.0
 30
0.0
  9
$UCSXDIR
 10
1.0
 20
0.0
 30
0.0
  9
$UCSYDIR
 10
0.0
 20
1.0
 30
0.0
  9
$UCSORTHOREF
  2

  9
$UCSORTHOVIEW
 70
     0
  9
$UCSORGTOP
 10
0.0
 20
0.0
 30
0.0
  9
$UCSORGBOTTOM
 10
0.0
 20
0.0
 30
0.0
  9
$UCSORGLEFT
 10
0.0
 20
0.0
 30
0.0
  9
$UCSORGRIGHT
 10
0.0
 20
0.0
 30
0.0
  9
$UCSORGFRONT
 10
0.0
 20
0.0
 30
0.0
  9
$UCSORGBACK
 10
0.0
 20
0.0
 30
0.0
  9
$PUCSBASE
  2

  9
$PUCSNAME
  2

  9
$PUCSORG
 10
0.0
 20
0.0
 30
0.0
  9
$PUCSXDIR
 10
1.0
 20
0.0
 30
0.0
  9
$PUCSYDIR
 10
0.0
 20
1.0
 30
0.0
  9
$PUCSORTHOREF
  2

  9
$PUCSORTHOVIEW
 70
     0
  9
$PUCSORGTOP
 10
0.0
 20
0.0
 30
0.0
  9
$PUCSORGBOTTOM
 10
0.0
 20
0.0
 30
0.0
  9
$PUCSORGLEFT
 10
0.0
 20
0.0
 30
0.0
  9
$PUCSORGRIGHT
 10
0.0
 20
0.0
 30
0.0
  9
$PUCSORGFRONT
 10
0.0
 20
0.0
 30
0.0
  9
$PUCSORGBACK
 10
0.0
 20
0.0
 30
0.0
  9
$USERI1
 70
     0
  9
$USERI2
 70
     0
  9
$USERI3
 70
     0
  9
$USERI4
 70
     0
  9
$USERI5
 70
     0
  9
$USERR1
 40
0.0
  9
$USERR2
 40
0.0
  9
$USERR3
 40
0.0
  9
$USERR4
 40
0.0
  9
$USERR5
 40
0.0
  9
$WORLDVIEW
 70
     1
  9
$SHADEDGE
 70
     3
  9
$SHADEDIF
 70
    70
  9
$TILEMODE
 70
     1
  9
$MAXACTVP
 70
    64
  9
$PINSBASE
 10
0.0
 20
0.0
 30
0.0
  9
$PLIMCHECK
 70
     0
  9
$PEXTMIN
 10
1.042221639059562
 20
1.08829855961801
 30
0.0
  9
$PEXTMAX
 10
407.82803226079
 20
284.1844718556203
 30
0.0
  9
$PLIMMIN
 10
-5.873748779296875
 20
-5.873749732971191
  9
$PLIMMAX
 10
414.0729064941406
 20
291.0522451400757
  9
$UNITMODE
 70
     0
  9
$VISRETAIN
 70
     1
  9
$PLINEGEN
 70
     0
  9
$PSLTSCALE
 70
     1
  9
$TREEDEPTH
 70
  3020
  9
$CMLSTYLE
  2
Standard
  9
$CMLJUST
 70
     0
  9
$CMLSCALE
 40
20.0
  9
$PROXYGRAPHICS
 70
     1
  9
$MEASUREMENT
 70
     1
  9
$CELWEIGHT
370
    -1
  9
$ENDCAPS
280
     0
  9
$JOINSTYLE
280
     0
  9
$LWDISPLAY
290
     0
  9
$INSUNITS
 70
     4
  9
$HYPERLINKBASE
  1

  9
$STYLESHEET
  1

  9
$XEDIT
290
     1
  9
$CEPSNTYPE
380
     0
  9
$PSTYLEMODE
290
     1
  9
$FINGERPRINTGUID
  2
{951E45A9-2098-449B-99F4-687C375CF490}
  9
$VERSIONGUID
  2
{872FC24A-27F7-4CD9-A6DE-89B91C7CCEE7}
  9
$EXTNAMES
290
     1
  9
$PSVPSCALE
 40
0.0
  9
$OLESTARTUP
290
     0
  0
ENDSEC
  0
SECTION
  2
CLASSES
  0
CLASS
  1
ACDBDICTIONARYWDFLT
  2
AcDbDictionaryWithDefault
  3
AutoCAD 2000
 90
        0
280
     0
281
     0
  0
CLASS
  1
ACDBPLACEHOLDER
  2
AcDbPlaceHolder
  3
AutoCAD 2000
 90
        0
280
     0
281
     0
  0
CLASS
  1
LAYOUT
  2
AcDbLayout
  3
AutoCAD 2000
 90
        0
280
     0
281
     0
  0
CLASS
  1
RASTERVARIABLES
  2
AcDbRasterVariables
  3
ISM
 90
        0
280
     0
281
     0
  0
CLASS
  1
DICTIONARYVAR
  2
AcDbDictionaryVar
  3
AutoCAD 2000
 90
        0
280
     0
281
     0
  0
ENDSEC
  0
SECTION
  2
TABLES
  0
TABLE
  2
VPORT
  5
8
330
0
100
AcDbSymbolTable
 70
     3
  0
VPORT
  5
AC5D
330
8
100
AcDbSymbolTableRecord
100
AcDbViewportTableRecord
  2
*Active
 70
     0
 10
0.0
 20
0.0
 11
1.0
 21
1.0
 12
290.7730968112766
 22
1174.774140198108
 13
0.0
 23
0.0
 14
10.0
 24
10.0
 15
10.0
 25
10.0
 16
0.0
 26
0.0
 36
1.0
 17
0.0
 27
0.0
 37
0.0
 40
1334.396741270265
 41
1.477300613496932
 42
50.0
 43
0.0
 44
0.0
 50
0.0
 51
0.0
 71
     0
 72
   100
 73
     1
 74
     3
 75
     0
 76
     0
 77
     0
 78
     0
281
     0
 65
     1
110
0.0
120
0.0
130
0.0
111
1.0
121
0.0
131
0.0
112
0.0
122
1.0
132
0.0
 79
     0
146
0.0
  0
ENDTAB
  0
TABLE
  2
LTYPE
  5
5
330
0
100
AcDbSymbolTable
 70
     6
  0
LTYPE
  5
14
330
5
100
AcDbSymbolTableRecord
100
AcDbLinetypeTableRecord
  2
ByBlock
 70
     0
  3

 72
    65
 73
     0
 40
0.0
  0
LTYPE
  5
15
330
5
100
AcDbSymbolTableRecord
100
AcDbLinetypeTableRecord
  2
ByLayer
 70
     0
  3

 72
    65
 73
     0
 40
0.0
  0
LTYPE
  5
16
330
5
100
AcDbSymbolTableRecord
100
AcDbLinetypeTableRecord
  2
Continuous
 70
     0
  3
Solid line
 72
    65
 73
     0
 40
0.0
  0
LTYPE
  5
35
330
5
100
AcDbSymbolTableRecord
100
AcDbLinetypeTableRecord
  2
HIDDEN
 70
     0
  3
Hidden __ __ __ __ __ __ __ __ __ __ __ __ __ _
 72
    65
 73
     2
 40
9.524999999999998
 49
6.349999999999999
 74
     0
 49
-3.174999999999999
 74
     0
  0
LTYPE
  5
36
330
5
100
AcDbSymbolTableRecord
100
AcDbLinetypeTableRecord
  2
HIDDEN2
 70
     0
  3
Hidden (.5x) _ _ _ _ _ _ _ _ _ _ _ _ _ _ _ _ _
 72
    65
 73
     2
 40
4.762499999999999
 49
3.174999999999999
 74
     0
 49
-1.587499999999999
 74
     0
  0
LTYPE
  5
37
330
5
100
AcDbSymbolTableRecord
100
AcDbLinetypeTableRecord
  2
CENTER
 70
     0
  3
Center ____ _ ____ _ ____ _ ____ _ ____ _ ____
 72
    65
 73
     4
 40
50.8
 49
31.75
 74
     0
 49
-6.349999999999999
 74
     0
 49
6.349999999999999
 74
     0
 49
-6.349999999999999
 74
     0
  0
LTYPE
  5
38
330
5
100
AcDbSymbolTableRecord
100
AcDbLinetypeTableRecord
  2
PHANTOM2
 70
     0
  3
Phantom (.5x) ___ _ _ ___ _ _ ___ _ _ ___ _ _
 72
    65
 73
     6
 40
31.75
 49
15.875
 74
     0
 49
-3.174999999999999
 74
     0
 49
3.174999999999999
 74
     0
 49
-3.174999999999999
 74
     0
 49
3.174999999999999
 74
     0
 49
-3.174999999999999
 74
     0
  0
LTYPE
  5
A8E5
330
5
100
AcDbSymbolTableRecord
100
AcDbLinetypeTableRecord
  2
PHANTOM
 70
     0
  3
Phantom ______  __  __  ______  __  __  ______
 72
    65
 73
     6
 40
63.5
 49
31.75
 74
     0
 49
-6.349999999999999
 74
     0
 49
6.349999999999999
 74
     0
 49
-6.349999999999999
 74
     0
 49
6.349999999999999
 74
     0
 49
-6.349999999999999
 74
     0
  0
ENDTAB
  0
TABLE
  2
LAYER
  5
2
330
0
100
AcDbSymbolTable
 70
    16
  0
LAYER
  5
10
330
2
100
AcDbSymbolTableRecord
100
AcDbLayerTableRecord
  2
0
 70
     0
 62
     7
  6
Continuous
370
     9
390
F
  0
LAYER
  5
39
330
2
100
AcDbSymbolTableRecord
100
AcDbLayerTableRecord
  2
１
 70
     0
 62
     2
  6
Continuous
370
     9
390
F
  0
LAYER
  5
3A
330
2
100
AcDbSymbolTableRecord
100
AcDbLayerTableRecord
  2
２
 70
     0
 62
     3
  6
Continuous
370
    20
390
F
  0
LAYER
  5
3B
330
2
100
AcDbSymbolTableRecord
100
AcDbLayerTableRecord
  2
３
 70
     0
 62
     4
  6
HIDDEN
370
    15
390
F
  0
LAYER
  5
3C
330
2
100
AcDbSymbolTableRecord
100
AcDbLayerTableRecord
  2
４
 70
     0
 62
     4
  6
HIDDEN2
370
    15
390
F
  0
LAYER
  5
3D
330
2
100
AcDbSymbolTableRecord
100
AcDbLayerTableRecord
  2
５
 70
     0
 62
     6
  6
CENTER
370
    15
390
F
  0
LAYER
  5
3E
330
2
100
AcDbSymbolTableRecord
100
AcDbLayerTableRecord
  2
６
 70
     0
 62
     5
  6
PHANTOM2
370
    15
390
F
  0
LAYER
  5
46
330
2
100
AcDbSymbolTableRecord
100
AcDbLayerTableRecord
  2
Defpoints
 70
     0
 62
     7
  6
Continuous
290
     0
370
    -3
390
F
  0
LAYER
  5
AB
330
2
100
AcDbSymbolTableRecord
100
AcDbLayerTableRecord
  2
Object
 70
     0
 62
     3
  6
Continuous
370
    20
390
F
  0
LAYER
  5
63B4
330
2
100
AcDbSymbolTableRecord
100
AcDbLayerTableRecord
  2
HIDDEN2
 70
     0
 62
     7
  6
HIDDEN2
370
    15
390
F
  0
LAYER
  5
64C8
330
2
100
AcDbSymbolTableRecord
100
AcDbLayerTableRecord
  2
1
 70
     0
 62
     7
  6
Continuous
370
     9
390
F
  0
LAYER
  5
64C9
330
2
100
AcDbSymbolTableRecord
100
AcDbLayerTableRecord
  2
2
 70
     0
 62
     3
  6
Continuous
370
    20
390
F
  0
LAYER
  5
88C5
330
2
100
AcDbSymbolTableRecord
100
AcDbLayerTableRecord
  2
Defined Points
 70
     0
 62
     2
  6
Continuous
370
    13
390
F
  0
LAYER
  5
9CA0
330
2
100
AcDbSymbolTableRecord
100
AcDbLayerTableRecord
  2
CENTER
 70
     0
 62
     7
  6
CENTER
370
     5
390
F
  0
LAYER
  5
9EEA
330
2
100
AcDbSymbolTableRecord
100
AcDbLayerTableRecord
  2
Hidden
 70
     0
 62
     4
  6
HIDDEN
370
    13
390
F
  0
LAYER
  5
A8E6
330
2
100
AcDbSymbolTableRecord
100
AcDbLayerTableRecord
  2
PHANTOM
 70
     0
 62
     4
  6
PHANTOM
370
    13
390
F
  0
ENDTAB
  0
TABLE
  2
STYLE
  5
3
330
0
100
AcDbSymbolTable
 70
     3
  0
STYLE
  5
11
330
3
100
AcDbSymbolTableRecord
100
AcDbTextStyleTableRecord
  2
Standard
 70
     0
 40
0.0
 41
1.0
 50
0.0
 71
     0
 42
2.5
  3
romans.shx
  4
bigfont.shx
  0
STYLE
  5
34
330
3
100
AcDbSymbolTableRecord
100
AcDbTextStyleTableRecord
  2

 70
     1
 40
0.0
 41
1.0
 50
0.0
 71
     0
 42
2.5
  3
ltypeshp.shx
  4

  0
STYLE
  5
12E
330
3
100
AcDbSymbolTableRecord
100
AcDbTextStyleTableRecord
  2
ｽﾀｲﾙ1
 70
     0
 40
2.5
 41
1.0
 50
0.0
 71
     0
 42
2.5
  3
txt.shx
  4

  0
ENDTAB
  0
TABLE
  2
VIEW
  5
6
330
0
100
AcDbSymbolTable
 70
     0
  0
ENDTAB
  0
TABLE
  2
UCS
  5
7
330
0
100
AcDbSymbolTable
 70
     0
  0
ENDTAB
  0
TABLE
  2
APPID
  5
9
330
0
100
AcDbSymbolTable
 70
     1
  0
APPID
  5
12
330
9
100
AcDbSymbolTableRecord
100
AcDbRegAppTableRecord
  2
ACAD
 70
     0
  0
ENDTAB
  0
TABLE
  2
DIMSTYLE
  5
A
330
0
100
AcDbSymbolTable
 70
     3
100
AcDbDimStyleTable
 71
     1
340
27
  0
DIMSTYLE
105
27
330
A
100
AcDbSymbolTableRecord
100
AcDbDimStyleTableRecord
  2
ISO-25
 70
     0
 41
5.0
 42
2.0
 43
3.75
 44
5.0
 73
     0
 74
     0
 77
     1
 78
     8
140
6.0
141
2.5
143
0.1
147
3.0
171
     3
172
     1
176
     7
177
     7
271
     2
272
     2
274
     3
283
     0
284
     8
340
11
371
     9
372
     9
  0
DIMSTYLE
105
AC
330
A
100
AcDbSymbolTableRecord
100
AcDbDimStyleTableRecord
  2
JIS
 70
     0
 41
2.5
 42
1.0
 43
7.0
 44
1.0
 73
     0
 74
     0
 77
     1
 78
     8
140
2.5
141
0.0
143
0.0394
147
0.0
172
     1
174
     1
175
     1
340
11
  0
DIMSTYLE
105
61DD
330
A
100
AcDbSymbolTableRecord
100
AcDbDimStyleTableRecord
  2
ｺﾋﾟｰ - ISO-25
 70
     0
 41
2.5
 42
0.625
 43
3.75
 44
1.25
 73
     0
 74
     0
 77
     1
 78
     8
140
2.5
141
2.5
143
0.03937007874016
147
0.625
171
     3
172
     1
271
     2
272
     2
274
     3
283
     0
284
     8
340
11
343
61D8
  0
ENDTAB
  0
TABLE
  2
BLOCK_RECORD
  5
1
330
0
100
AcDbSymbolTable
 70
     2
  0
BLOCK_RECORD
  5
1F
330
1
100
AcDbSymbolTableRecord
100
AcDbBlockTableRecord
  2
*Model_Space
340
22
  0
BLOCK_RECORD
  5
1B
330
1
100
AcDbSymbolTableRecord
100
AcDbBlockTableRecord
  2
*Paper_Space
340
1E
  0
BLOCK_RECORD
  5
23
330
1
100
AcDbSymbolTableRecord
100
AcDbBlockTableRecord
  2
*Paper_Space0
340
26
  0
BLOCK_RECORD
  5
61D8
330
1
100
AcDbSymbolTableRecord
100
AcDbBlockTableRecord
  2
_Dot
340
0
  0
ENDTAB
  0
ENDSEC
  0
SECTION
  2
BLOCKS
  0
BLOCK
  5
20
330
1F
100
AcDbEntity
  8
0
100
AcDbBlockBegin
  2
*Model_Space
 70
     0
 10
0.0
 20
0.0
 30
0.0
  3
*Model_Space
  1

  0
ENDBLK
  5
21
330
1F
100
AcDbEntity
  8
0
100
AcDbBlockEnd
  0
BLOCK
  5
1C
330
1B
100
AcDbEntity
 67
     1
  8
0
100
AcDbBlockBegin
  2
*Paper_Space
 70
     0
 10
0.0
 20
0.0
 30
0.0
  3
*Paper_Space
  1

  0
ENDBLK
  5
1D
330
1B
100
AcDbEntity
 67
     1
  8
0
100
AcDbBlockEnd
  0
BLOCK
  5
24
330
23
100
AcDbEntity
  8
0
100
AcDbBlockBegin
  2
*Paper_Space0
 70
     0
 10
0.0
 20
0.0
 30
0.0
  3
*Paper_Space0
  1

  0
VIEWPORT
  5
922
330
23
100
AcDbEntity
  8
0
100
AcDbViewport
 10
0.0
 20
0.0
 30
0.0
 40
0.0
 41
0.0
 69
     0
 12
0.0
 22
0.0
 13
0.0
 23
0.0
 14
10.0
 24
10.0
 15
10.0
 25
10.0
 16
0.0
 26
0.0
 36
1.0
 17
0.0
 27
0.0
 37
0.0
 42
50.0
 43
0.0
 44
0.0
 45
0.0
 50
0.0
 51
0.0
 72
   100
 90
    32800
  1

281
     0
 71
     1
 74
     0
110
0.0
120
0.0
130
0.0
111
1.0
121
0.0
131
0.0
112
0.0
122
1.0
132
0.0
 79
     0
146
0.0
  0
VIEWPORT
  5
924
330
23
100
AcDbEntity
  8
0
100
AcDbViewport
 10
0.0
 20
0.0
 30
0.0
 40
0.0
 41
0.0
 69
     0
 12
8199.401833840978
 22
6162.095030619208
 13
0.0
 23
0.0
 14
10.0
 24
10.0
 15
10.0
 25
10.0
 16
0.0
 26
0.0
 36
1.0
 17
0.0
 27
0.0
 37
0.0
 42
50.0
 43
0.0
 44
0.0
 45
12844.48115925182
 50
0.0
 51
0.0
 72
   100
 90
    32864
  1

281
     0
 71
     1
 74
     0
110
0.0
120
0.0
130
0.0
111
1.0
121
0.0
131
0.0
112
0.0
122
1.0
132
0.0
 79
     0
146
0.0
  0
ENDBLK
  5
25
330
23
100
AcDbEntity
  8
0
100
AcDbBlockEnd
  0
BLOCK
  5
61DB
330
61D8
100
AcDbEntity
  8
0
100
AcDbBlockBegin
  2
_Dot
 70
     0
 10
0.0
 20
0.0
 30
0.0
  3
_Dot
  1

  0
LWPOLYLINE
  5
61D9
330
61D8
100
AcDbEntity
  8
0
 62
     0
100
AcDbPolyline
 90
        2
 70
     1
 43
0.5
 10
-0.25
 20
0.0
 42
1.0
 10
0.25
 20
0.0
 42
1.0
  0
LINE
  5
61DA
330
61D8
100
AcDbEntity
  8
0
 62
     0
370
    -2
100
AcDbLine
 10
-0.5
 20
0.0
 30
0.0
 11
-1.0
 21
0.0
 31
0.0
  0
ENDBLK
  5
61DC
330
61D8
100
AcDbEntity
  8
0
100
AcDbBlockEnd
  0
ENDSEC
  0
SECTION
  2
ENTITIES
  0
LINE
  5
60DA
330
1F
100
AcDbEntity
  8
２
 62
     0
370
    20
100
AcDbLine
 10
-113.6069841392893
 20
817.5308658634676
 30
0.0
 11
682.3930158607106
 21
817.5308658634676
 31
0.0
  0
LINE
  5
60DB
330
1F
100
AcDbEntity
  8
２
 62
     0
 48
25.0
100
AcDbLine
 10
-113.6069841392893
 20
837.5308658634676
 30
0.0
 11
682.3930158607106
 21
837.5308658634676
 31
0.0
  0
LINE
  5
60DC
330
1F
100
AcDbEntity
  8
２
 62
     0
 48
25.0
100
AcDbLine
 10
-113.6069841392893
 20
837.5308658634676
 30
0.0
 11
682.3930158607106
 21
837.5308658634676
 31
0.0
  0
LINE
  5
60DD
330
1F
100
AcDbEntity
  8
0
 62
     0
 48
25.0
100
AcDbLine
 10
279.1215549150597
 20
837.5308658634676
 30
0.0
 11
318.4215549150597
 21
837.5308658634676
 31
0.0
  0
LINE
  5
60DE
330
1F
100
AcDbEntity
  8
２
 62
     0
370
    20
100
AcDbLine
 10
682.3930158607106
 20
817.5308658634676
 30
0.0
 11
-67.60698413928935
 21
817.5308658634678
 31
0.0
  0
LINE
  5
60DF
330
1F
100
AcDbEntity
  8
１
 62
     0
 48
25.0
100
AcDbLine
 10
-103.8208647361605
 20
827.5308658634676
 30
0.0
 11
173.6637676806376
 21
827.5308658634671
 31
0.0
  0
LINE
  5
60E0
330
1F
100
AcDbEntity
  8
１
 62
     0
 48
25.0
100
AcDbLine
 10
173.6637676806376
 20
822.5308658634673
 30
0.0
 11
-103.8208647361605
 21
822.5308658634672
 31
0.0
  0
LINE
  5
60E1
330
1F
100
AcDbEntity
  8
１
 62
     0
 48
25.0
100
AcDbLine
 10
173.6637676806376
 20
832.5308658634677
 30
0.0
 11
-103.8208647361605
 21
832.5308658634677
 31
0.0
  0
LINE
  5
60E2
330
1F
100
AcDbEntity
  8
0
 62
     0
100
AcDbLine
 10
-67.60698413928935
 20
817.5308658634676
 30
0.0
 11
-113.6069841392893
 21
817.5308658634676
 31
0.0
  0
LINE
  5
60E3
330
1F
100
AcDbEntity
  8
２
 62
     0
 48
25.0
100
AcDbLine
 10
-107.8208647361605
 20
837.5308658634676
 30
0.0
 11
-107.8208647361605
 21
817.5308658634676
 31
0.0
  0
LINE
  5
60E4
330
1F
100
AcDbEntity
  8
２
 62
     0
 48
25.0
100
AcDbLine
 10
-113.6069841392893
 20
817.5308658634676
 30
0.0
 11
-117.6069841392893
 21
817.5308658634676
 31
0.0
  0
LINE
  5
60E5
330
1F
100
AcDbEntity
  8
２
 62
     0
 48
25.0
100
AcDbLine
 10
-117.6069841392893
 20
817.6093089910487
 30
0.0
 11
-117.6069841392893
 21
817.5308658634676
 31
0.0
  0
LINE
  5
60E6
330
1F
100
AcDbEntity
  8
0
 62
     0
 48
25.0
100
AcDbLine
 10
-113.6069841392893
 20
837.5308658634676
 30
0.0
 11
-107.8208647361605
 21
837.5308658634676
 31
0.0
  0
MTEXT
  5
60E7
330
1F
100
AcDbEntity
  8
２
 62
     0
 48
25.0
100
AcDbMText
 10
-112.2139241392893
 20
827.5308658634678
 30
0.0
 40
4.5
 41
9.78612
 71
     5
 72
     5
  1
記\P事
 73
     1
 44
1.0
  0
LINE
  5
60E8
330
1F
100
AcDbEntity
  8
２
 62
     0
 48
25.0
100
AcDbLine
 10
-113.6069841392893
 20
837.5308658634676
 30
0.0
 11
-117.6069841392893
 21
837.5308658634676
 31
0.0
  0
LINE
  5
60E9
330
1F
100
AcDbEntity
  8
１
 62
     0
 48
25.0
100
AcDbLine
 10
-103.8208647361605
 20
822.5308658634672
 30
0.0
 11
-107.8208647361605
 21
822.5308658634672
 31
0.0
  0
LINE
  5
60EA
330
1F
100
AcDbEntity
  8
１
 62
     0
 48
25.0
100
AcDbLine
 10
-103.8208647361605
 20
827.5308658634676
 30
0.0
 11
-107.8208647361605
 21
827.5308658634676
 31
0.0
  0
LINE
  5
60EB
330
1F
100
AcDbEntity
  8
１
 62
     0
 48
25.0
100
AcDbLine
 10
-103.8208647361605
 20
832.5308658634677
 30
0.0
 11
-107.8208647361605
 21
832.5308658634677
 31
0.0
  0
LINE
  5
60EC
330
1F
100
AcDbEntity
  8
２
 62
     0
 48
25.0
100
AcDbLine
 10
173.6637676806376
 20
837.5308658634676
 30
0.0
 11
279.1215549150597
 21
837.5308658634676
 31
0.0
  0
LINE
  5
60ED
330
1F
100
AcDbEntity
  8
１
 62
     0
 48
25.0
100
AcDbLine
 10
173.6637676806376
 20
827.5308658634676
 30
0.0
 11
279.1215549150597
 21
827.5308658634676
 31
0.0
  0
MTEXT
  5
60EE
330
1F
100
AcDbEntity
  8
２
 62
     0
 48
25.0
100
AcDbMText
 10
193.3117526806377
 20
822.5308658634677
 30
0.0
 40
6.0
 41
39.296
 71
     5
 72
     5
  1
作図者
 73
     1
 44
1.0
  0
MTEXT
  5
60EF
330
1F
100
AcDbEntity
  8
２
 62
     0
 48
25.0
100
AcDbMText
 10
194.0347626806376
 20
832.5308658634677
 30
0.0
 40
6.0
 41
40.742
 71
     5
 72
     5
  1
作図日
 73
     1
 44
1.0
  0
LINE
  5
60F0
330
1F
100
AcDbEntity
  8
２
 62
     0
 48
25.0
100
AcDbLine
 10
173.6637676806376
 20
827.5308658634671
 30
0.0
 11
173.6637676806376
 21
817.5308658634676
 31
0.0
  0
LINE
  5
60F1
330
1F
100
AcDbEntity
  8
２
 62
     0
 48
25.0
100
AcDbLine
 10
173.6637676806376
 20
837.5308658634676
 30
0.0
 11
173.6637676806376
 21
817.5308658634676
 31
0.0
  0
LINE
  5
60F2
330
1F
100
AcDbEntity
  8
0
 62
     0
 48
25.0
100
AcDbLine
 10
173.6637676806376
 20
837.5308658634676
 30
0.0
 11
173.6637676806376
 21
827.5308658634676
 31
0.0
  0
LINE
  5
60F3
330
1F
100
AcDbEntity
  8
２
 62
     0
 48
25.0
100
AcDbLine
 10
212.9597354275438
 20
837.5308658634676
 30
0.0
 11
212.9597354275438
 21
817.5308658634676
 31
0.0
  0
LINE
  5
60F6
330
1F
100
AcDbEntity
  8
２
 62
     0
 48
25.0
100
AcDbLine
 10
279.1215549150597
 20
837.5308658634677
 30
0.0
 11
279.1215549150597
 21
817.5308658634678
 31
0.0
  0
LINE
  5
60F7
330
1F
100
AcDbEntity
  8
１
 62
     0
 48
25.0
100
AcDbLine
 10
318.4215549150597
 20
827.5308658634676
 30
0.0
 11
528.649591227999
 21
827.5308658634676
 31
0.0
  0
LINE
  5
60F8
330
1F
100
AcDbEntity
  8
0
 62
     0
 48
25.0
100
AcDbLine
 10
341.3965544355929
 20
837.5308658634676
 30
0.0
 11
460.2880544355928
 21
837.5308658634676
 31
0.0
  0
MTEXT
  5
60F9
330
1F
100
AcDbEntity
  8
２
 62
     0
 48
25.0
100
AcDbMText
 10
338.0715549150596
 20
822.5308658634677
 30
0.0
 40
6.0
 41
39.29999999999999
 71
     5
 72
     5
  1
図　　名
 73
     1
 44
1.0
  0
MTEXT
  5
60FA
330
1F
100
AcDbEntity
  8
２
 62
     0
 48
25.0
100
AcDbMText
 10
338.0715549150596
 20
832.5308658634677
 30
0.0
 40
6.0
 41
39.29999999999999
 71
     5
 72
     5
  1
物件名称
 73
     1
 44
1.0
  0
LINE
  5
60FB
330
1F
100
AcDbEntity
  8
0
 62
     0
 48
25.0
100
AcDbLine
 10
318.4215549150597
 20
837.5308658634676
 30
0.0
 11
357.7215549150596
 21
837.5308658634676
 31
0.0
  0
MTEXT
  5
60FC
330
1F
100
AcDbEntity
  8
２
 62
     0
 48
25.0
100
AcDbMText
 10
298.2565124150596
 20
827.5308658634678
 30
0.0
 40
4.5
 41
32.06989999999999
 71
     5
 72
     5
  1
Ｓ＝1/2
 73
     1
 44
1.0
  0
LINE
  5
60FD
330
1F
100
AcDbEntity
  8
２
 62
     0
 48
25.0
100
AcDbLine
 10
318.4215549150597
 20
837.5308658634676
 30
0.0
 11
318.4215549150597
 21
817.5308658634676
 31
0.0
  0
LINE
  5
60FE
330
1F
100
AcDbEntity
  8
0
 62
     0
 48
25.0
100
AcDbLine
 10
318.4215549150597
 20
837.5308658634676
 30
0.0
 11
318.4215549150597
 21
817.5308658634676
 31
0.0
  0
LINE
  5
60FF
330
1F
100
AcDbEntity
  8
２
 62
     0
 48
25.0
100
AcDbLine
 10
357.7215549150596
 20
837.5308658634676
 30
0.0
 11
357.7215549150596
 21
817.5308658634676
 31
0.0
  0
LINE
  5
6100
330
1F
100
AcDbEntity
  8
２
 62
     0
 48
25.0
100
AcDbLine
 10
528.649591227999
 20
837.5308658634676
 30
0.0
 11
528.649591227999
 21
817.5308658634676
 31
0.0
  0
MTEXT
  5
6101
330
1F
100
AcDbEntity
  8
２
 62
     0
 48
25.0
100
AcDbMText
 10
626.0641145896142
 20
827.5308658634678
 30
0.0
 40
6.0
 41
103.21335
 71
     5
 72
     5
  1
株式会社{\H1.25x; アルティマ}
 73
     1
 44
1.0
  0
ARC
  5
6102
330
1F
100
AcDbEntity
  8
Object
 62
     0
 48
0.3
100
AcDbCircle
 10
568.3681132541858
 20
824.3086653690383
 30
0.0
 40
4.049999999999999
100
AcDbArc
 50
180.0
 51
257.3448222610501
  0
LINE
  5
6103
102
{ACAD_REACTORS
330
6105
102
}
330
1F
100
AcDbEntity
  8
Object
 62
     0
 48
0.3
100
AcDbLine
 10
546.6185729416677
 20
834.8220867758399
 30
0.0
 11
549.3185729416677
 21
834.8220867758399
 31
0.0
  0
ARC
  5
6104
102
{ACAD_REACTORS
330
6105
102
}
330
1F
100
AcDbEntity
  8
Object
 62
     0
 48
0.3
100
AcDbCircle
 10
545.2685729416677
 20
824.29208677584
 30
0.0
 40
4.049999999999999
100
AcDbArc
 50
180.0
 51
0.0
  0
HATCH
  5
6105
330
1F
100
AcDbEntity
  8
Object
 62
     0
 48
0.3
100
AcDbHatch
 10
0.0
 20
0.0
 30
0.0
210
0.0
220
0.0
230
1.0
  2
ANSI31
 70
     0
 71
     1
 91
        1
 92
        1
 93
        8
 72
     1
 10
543.9185729416676
 20
834.8220867758399
 11
541.2185729416676
 21
834.8220867758399
 72
     1
 10
541.2185729416676
 20
834.8220867758399
 11
541.2185729416676
 21
824.29208677584
 72
     2
 10
545.2685729416677
 20
824.29208677584
 40
4.049999999999999
 50
180.0
 51
360.0
 73
     1
 72
     1
 10
549.3185729416677
 20
824.29208677584
 11
549.3185729416677
 21
834.8220867758399
 72
     1
 10
549.3185729416677
 20
834.8220867758399
 11
546.6185729416677
 21
834.8220867758399
 72
     1
 10
546.6185729416677
 20
834.8220867758399
 11
546.6185729416677
 21
824.29208677584
 72
     2
 10
545.2685729416677
 20
824.29208677584
 40
1.35
 50
360.0
 51
540.0
 73
     0
 72
     1
 10
543.9185729416676
 20
824.29208677584
 11
543.9185729416676
 21
834.8220867758399
 97
        8
330
610B
330
6106
330
6104
330
610D
330
6103
330
6108
330
6109
330
6107
 75
     0
 76
     1
 52
0.0
 41
0.01125
 77
     0
 78
     1
 53
45.0
 43
388.6807673218097
 44
717.6334720785245
 45
-0.025256970340507
 46
0.025256970340507
 79
     0
 98
        1
 10
388.6807673218097
 20
717.6334720785245
  0
LINE
  5
6106
102
{ACAD_REACTORS
330
6105
102
}
330
1F
100
AcDbEntity
  8
Object
 62
     0
 48
0.3
100
AcDbLine
 10
541.2185729416676
 20
824.29208677584
 30
0.0
 11
541.2185729416676
 21
834.8220867758399
 31
0.0
  0
LINE
  5
6107
102
{ACAD_REACTORS
330
6105
102
}
330
1F
100
AcDbEntity
  8
Object
 62
     0
 48
0.3
100
AcDbLine
 10
543.9185729416676
 20
834.8220867758399
 30
0.0
 11
543.9185729416676
 21
824.29208677584
 31
0.0
  0
LINE
  5
6108
102
{ACAD_REACTORS
330
6105
102
}
330
1F
100
AcDbEntity
  8
Object
 62
     0
 48
0.3
100
AcDbLine
 10
546.6185729416677
 20
834.8220867758399
 30
0.0
 11
546.6185729416677
 21
824.29208677584
 31
0.0
  0
ARC
  5
6109
102
{ACAD_REACTORS
330
6105
102
}
330
1F
100
AcDbEntity
  8
Object
 62
     0
 48
0.3
100
AcDbCircle
 10
545.2685729416677
 20
824.29208677584
 30
0.0
 40
1.35
100
AcDbArc
 50
180.0
 51
0.0
  0
LINE
  5
610A
330
1F
100
AcDbEntity
  8
Object
 62
     0
 48
0.3
100
AcDbLine
 10
541.2185729416676
 20
834.8220867758399
 30
0.0
 11
543.9185729416676
 21
834.8220867758399
 31
0.0
  0
LINE
  5
610B
102
{ACAD_REACTORS
330
6105
102
}
330
1F
100
AcDbEntity
  8
Object
 62
     0
 48
0.3
100
AcDbLine
 10
543.9185729416676
 20
834.8220867758399
 30
0.0
 11
541.2185729416676
 21
834.8220867758399
 31
0.0
  0
LINE
  5
610C
102
{ACAD_REACTORS
330
610F
102
}
330
1F
100
AcDbEntity
  8
Object
 62
     0
 48
0.3
100
AcDbLine
 10
556.5185729416677
 20
834.8220867758399
 30
0.0
 11
556.5185729416677
 21
822.9420867758401
 31
0.0
  0
LINE
  5
610D
102
{ACAD_REACTORS
330
6105
102
}
330
1F
100
AcDbEntity
  8
Object
 62
     0
 48
0.3
100
AcDbLine
 10
549.3185729416677
 20
834.8220867758399
 30
0.0
 11
549.3185729416677
 21
824.29208677584
 31
0.0
  0
LINE
  5
610E
102
{ACAD_REACTORS
330
610F
102
}
330
1F
100
AcDbEntity
  8
Object
 62
     0
 48
0.3
100
AcDbLine
 10
553.8185729416677
 20
834.8220867758399
 30
0.0
 11
553.8185729416677
 21
820.24208677584
 31
0.0
  0
HATCH
  5
610F
330
1F
100
AcDbEntity
  8
Object
 62
     0
 48
0.3
100
AcDbHatch
 10
0.0
 20
0.0
 30
0.0
210
0.0
220
0.0
230
1.0
  2
ANSI31
 70
     0
 71
     1
 91
        1
 92
        1
 93
        6
 72
     1
 10
553.8185729416677
 20
834.8220867758399
 11
556.5185729416677
 21
834.8220867758399
 72
     1
 10
556.5185729416677
 20
834.8220867758399
 11
556.5185729416677
 21
822.9420867758401
 72
     1
 10
556.5185729416677
 20
822.9420867758401
 11
561.9185729416677
 21
822.9420867758401
 72
     1
 10
561.9185729416677
 20
822.9420867758401
 11
561.9185729416677
 21
820.24208677584
 72
     1
 10
561.9185729416677
 20
820.24208677584
 11
553.8185729416677
 21
820.24208677584
 72
     1
 10
553.8185729416677
 20
820.24208677584
 11
553.8185729416677
 21
834.8220867758399
 97
        6
330
6113
330
610C
330
6112
330
6111
330
6110
330
610E
 75
     0
 76
     1
 52
0.0
 41
0.01125
 77
     0
 78
     1
 53
45.0
 43
388.6807673218097
 44
717.6334720785245
 45
-0.025256970340507
 46
0.025256970340507
 79
     0
 98
        1
 10
388.6807673218097
 20
717.6334720785245
  0
LINE
  5
6110
102
{ACAD_REACTORS
330
610F
102
}
330
1F
100
AcDbEntity
  8
Object
 62
     0
 48
0.3
100
AcDbLine
 10
553.8185729416677
 20
820.24208677584
 30
0.0
 11
561.9185729416677
 21
820.24208677584
 31
0.0
  0
LINE
  5
6111
102
{ACAD_REACTORS
330
610F
102
}
330
1F
100
AcDbEntity
  8
Object
 62
     0
 48
0.3
100
AcDbLine
 10
561.9185729416677
 20
820.24208677584
 30
0.0
 11
561.9185729416677
 21
822.9420867758401
 31
0.0
  0
LINE
  5
6112
102
{ACAD_REACTORS
330
610F
102
}
330
1F
100
AcDbEntity
  8
Object
 62
     0
 48
0.3
100
AcDbLine
 10
561.9185729416677
 20
822.9420867758401
 30
0.0
 11
556.5185729416677
 21
822.9420867758401
 31
0.0
  0
LINE
  5
6113
102
{ACAD_REACTORS
330
610F
102
}
330
1F
100
AcDbEntity
  8
Object
 62
     0
 48
0.3
100
AcDbLine
 10
553.8185729416677
 20
834.8220867758399
 30
0.0
 11
556.5185729416677
 21
834.8220867758399
 31
0.0
  0
LINE
  5
6114
330
1F
100
AcDbEntity
  8
Object
 62
     0
 48
0.3
100
AcDbLine
 10
572.4181132541859
 20
830.7720867758398
 30
0.0
 11
572.4181132541859
 21
829.2123630550754
 31
0.0
  0
LINE
  5
6115
330
1F
100
AcDbEntity
  8
Object
 62
     0
 48
0.3
100
AcDbLine
 10
567.0181132541858
 20
824.3086653690383
 30
0.0
 11
567.0181132541858
 21
830.7720867758398
 31
0.0
  0
LINE
  5
6116
330
1F
100
AcDbEntity
  8
Object
 62
     0
 48
0.3
100
AcDbLine
 10
564.3181132541858
 20
824.1537331999293
 30
0.0
 11
564.3181132541858
 21
830.7720867758398
 31
0.0
  0
LINE
  5
6117
330
1F
100
AcDbEntity
  8
Object
 62
     0
 48
0.3
100
AcDbLine
 10
569.7181132541859
 20
829.2123630550754
 30
0.0
 11
569.7181132541859
 21
830.7720867758398
 31
0.0
  0
LINE
  5
6118
330
1F
100
AcDbEntity
  8
Object
 62
     0
 48
0.3
100
AcDbLine
 10
567.0181132541858
 20
824.3086653690383
 30
0.0
 11
567.0181132541858
 21
830.7720867758398
 31
0.0
  0
HATCH
  5
6119
330
1F
100
AcDbEntity
  8
Object
 62
     0
 48
0.3
100
AcDbHatch
 10
0.0
 20
0.0
 30
0.0
210
0.0
220
0.0
230
1.0
  2
ANSI31
 70
     0
 71
     0
 91
        1
 92
        7
 72
     1
 73
     1
 93
       17
 10
567.0181132541858
 20
824.3086653690385
 42
0.0
 10
567.0181132541858
 20
830.77208677584
 42
-1.0
 10
569.7181132541859
 20
830.77208677584
 42
0.0
 10
569.7181132541859
 20
829.2123630550756
 42
0.0
 10
572.4181132541859
 20
829.2123630550756
 42
0.0
 10
572.4181132541859
 20
830.77208677584
 42
1.0
 10
564.3181132541858
 20
830.77208677584
 42
0.0
 10
564.3181132541858
 20
824.3086653690385
 42
0.3509045778193816
 10
567.4808271837385
 20
820.3570551365903
 42
0.4071999015487891
 10
569.7181132541859
 20
821.6727720151556
 42
0.0
 10
569.7181132541859
 20
820.24208677584
 42
0.0
 10
572.4181132541859
 20
820.24208677584
 42
0.0
 10
572.4181132541859
 20
827.58962883278
 42
0.0
 10
568.371917058751
 20
827.58962883278
 42
0.0
 10
568.3719170587507
 20
824.8896288327799
 42
0.0
 10
569.7181132541859
 20
824.8896288327799
 42
0.0
 10
569.7181132541859
 20
824.3086653690385
 42
-1.0
 97
        0
 75
     0
 76
     1
 52
0.0
 41
0.01125
 77
     0
 78
     1
 53
45.0
 43
388.6807673218097
 44
717.6334720785245
 45
-0.025256970340507
 46
0.025256970340507
 79
     0
 47
0.0407053698821989
 98
        1
 10
568.0942869891232
 20
822.1037355012922
  0
LINE
  5
611A
330
1F
100
AcDbEntity
  8
Object
 62
     0
 48
0.3
100
AcDbLine
 10
569.7181132541859
 20
829.2123630550754
 30
0.0
 11
572.4181132541859
 21
829.2123630550754
 31
0.0
  0
LINE
  5
611B
330
1F
100
AcDbEntity
  8
Object
 62
     0
 48
0.3
100
AcDbLine
 10
572.4181132541859
 20
827.5896288327798
 30
0.0
 11
568.371917058751
 21
827.5896288327798
 31
0.0
  0
LINE
  5
611C
330
1F
100
AcDbEntity
  8
Object
 62
     0
 48
0.3
100
AcDbLine
 10
569.7181132541859
 20
820.24208677584
 30
0.0
 11
572.4181132541859
 21
820.24208677584
 31
0.0
  0
LINE
  5
611D
330
1F
100
AcDbEntity
  8
Object
 62
     0
 48
0.3
100
AcDbLine
 10
572.4181132541859
 20
820.24208677584
 30
0.0
 11
569.7181132541859
 21
820.24208677584
 31
0.0
  0
LINE
  5
611E
330
1F
100
AcDbEntity
  8
Object
 62
     0
 48
0.3
100
AcDbLine
 10
568.371917058751
 20
827.5896288327798
 30
0.0
 11
568.371917058751
 21
824.8896288327799
 31
0.0
  0
LINE
  5
611F
330
1F
100
AcDbEntity
  8
Object
 62
     0
 48
0.3
100
AcDbLine
 10
568.371917058751
 20
824.8896288327799
 30
0.0
 11
569.7181132541859
 21
824.8896288327799
 31
0.0
  0
LINE
  5
6120
330
1F
100
AcDbEntity
  8
Object
 62
     0
 48
0.3
100
AcDbLine
 10
569.7181132541859
 20
824.3086653690383
 30
0.0
 11
569.7181132541859
 21
824.8896288327799
 31
0.0
  0
LINE
  5
6121
330
1F
100
AcDbEntity
  8
Object
 62
     0
 48
0.3
100
AcDbLine
 10
569.7181132541859
 20
824.8896288327799
 30
0.0
 11
569.7181132541859
 21
824.2651066341716
 31
0.0
  0
LINE
  5
6122
330
1F
100
AcDbEntity
  8
Object
 62
     0
 48
0.3
100
AcDbLine
 10
568.371917058751
 20
824.8896288327799
 30
0.0
 11
569.7181132541859
 21
824.8896288327799
 31
0.0
  0
LINE
  5
6123
330
1F
100
AcDbEntity
  8
Object
 62
     0
 48
0.3
100
AcDbLine
 10
569.7181132541859
 20
824.8896288327799
 30
0.0
 11
569.7181132541859
 21
824.3086653690383
 31
0.0
  0
ARC
  5
6124
330
1F
100
AcDbEntity
  8
Object
 62
     0
 48
0.3
100
AcDbCircle
 10
568.3681132541858
 20
824.3086653690383
 30
0.0
 40
1.35
100
AcDbArc
 50
180.0
 51
0.0
  0
ARC
  5
6125
330
1F
100
AcDbEntity
  8
Object
 62
     0
 48
0.3
100
AcDbCircle
 10
567.9256270136168
 20
822.1607376065174
 30
0.0
 40
1.857718315833298
100
AcDbArc
 50
256.1468978562146
 51
344.7714912032799
  0
LINE
  5
6126
330
1F
100
AcDbEntity
  8
Object
 62
     0
 48
0.3
100
AcDbLine
 10
569.7181132541859
 20
821.672772015151
 30
0.0
 11
569.7181132541859
 21
820.24208677584
 31
0.0
  0
LINE
  5
6127
330
1F
100
AcDbEntity
  8
Object
 62
     0
 48
0.3
100
AcDbLine
 10
572.4181132541859
 20
827.5896288327794
 30
0.0
 11
572.4181132541859
 21
820.24208677584
 31
0.0
  0
ARC
  5
6128
330
1F
100
AcDbEntity
  8
Object
 62
     0
 48
0.3
100
AcDbCircle
 10
568.3681132541858
 20
830.7720867758398
 30
0.0
 40
4.049999999999999
100
AcDbArc
 50
0.0
 51
180.0
  0
ARC
  5
6129
330
1F
100
AcDbEntity
  8
Object
 62
     0
 48
0.3
100
AcDbCircle
 10
568.3681132541858
 20
830.7720867758398
 30
0.0
 40
1.35
100
AcDbArc
 50
0.0
 51
180.0
  0
LINE
  5
612A
330
1F
100
AcDbEntity
  8
２
 62
     0
 48
25.0
100
AcDbLine
 10
-117.6069841392893
 20
817.5308658634676
 30
0.0
 11
682.3930158607106
 21
817.5308658634675
 31
0.0
  0
LINE
  5
61A6
330
1F
100
AcDbEntity
  8
２
 62
     0
 48
25.0
100
AcDbLine
 10
-117.6069841392893
 20
817.5308658634675
 30
0.0
 11
-117.6069841392893
 21
1367.530865863467
 31
0.0
  0
LINE
  5
61A7
330
1F
100
AcDbEntity
  8
２
 62
     0
 48
25.0
100
AcDbLine
 10
-117.6069841392893
 20
1367.530865863467
 30
0.0
 11
682.3930158607105
 21
1367.530865863467
 31
0.0
  0
LINE
  5
61A8
330
1F
100
AcDbEntity
  8
２
 62
     0
 48
25.0
100
AcDbLine
 10
682.3930158607105
 20
1367.530865863467
 30
0.0
 11
682.3930158607106
 21
817.5308658634675
 31
0.0
  0
MTEXT
  5
6487
330
1F
100
AcDbEntity
  8
４
 62
     0
 48
0.5
100
AcDbMText
 10
171.1613615566535
 20
820.0308658634675
 30
0.0
 40
2.5
 41
7.0048
 71
     5
 72
     5
  1
6
 73
     1
 44
1.0
  0
MTEXT
  5
805E
330
1F
100
AcDbEntity
  8
0
 48
0.5
100
AcDbMText
 10
29.16955816236122
 20
1035.5359660895
 30
0.0
 40
6.0
 41
20.438
 71
     9
 72
     1
  1

 73
     1
 44
1.0
  0
MTEXT
  5
8061
330
1F
100
AcDbEntity
  8
0
 48
0.5
100
AcDbMText
 10
18.39555542707603
 20
1011.50872061242
 30
0.0
 40
6.0
 41
20.438
 71
     9
 72
     1
  1

 73
     1
 44
1.0
  0
MTEXT
  5
9B28
330
1F
100
AcDbEntity
  8
0
 62
     0
 48
0.5
100
AcDbMText
 10
364.1296405483976
 20
825.7154278635503
 30
0.0
 40
6.0
 41
0.0
 71
     1
 72
     5
  1
%%c4・%%c3取付け部
 73
     1
 44
1.0
  0
LINE
  5
9B86
330
1F
100
AcDbEntity
  8
0
 62
     0
 48
0.5
100
AcDbLine
 10
43.67086002317773
 20
997.6380979903892
 30
0.0
 11
43.67086002317773
 21
1107.638097990389
 31
0.0
  0
LINE
  5
9B87
330
1F
100
AcDbEntity
  8
0
 62
     0
 48
0.5
100
AcDbLine
 10
43.67086002317773
 20
1107.638097990389
 30
0.0
 11
193.6708600231777
 21
1107.638097990389
 31
0.0
  0
LINE
  5
9B88
330
1F
100
AcDbEntity
  8
0
 62
     0
 48
0.5
100
AcDbLine
 10
193.6708600231777
 20
1107.638097990389
 30
0.0
 11
193.6708600231777
 21
997.6380979903892
 31
0.0
  0
LINE
  5
9B89
330
1F
100
AcDbEntity
  8
0
 62
     0
 48
0.5
100
AcDbLine
 10
193.6708600231777
 20
1107.638097990389
 30
0.0
 11
343.6708600231777
 21
1107.638097990389
 31
0.0
  0
LINE
  5
9B8A
330
1F
100
AcDbEntity
  8
0
 62
     0
 48
0.5
100
AcDbLine
 10
193.6708600231777
 20
997.6380979903892
 30
0.0
 11
193.6708600231777
 21
1107.638097990389
 31
0.0
  0
LINE
  5
9B8B
330
1F
100
AcDbEntity
  8
0
 62
     0
 48
0.5
100
AcDbLine
 10
343.6708600231777
 20
1107.638097990389
 30
0.0
 11
343.6708600231777
 21
1094.163595568635
 31
0.0
  0
LINE
  5
9B8C
330
1F
100
AcDbEntity
  8
0
 62
     0
 48
0.5
100
AcDbLine
 10
343.6708600231777
 20
1107.638097990389
 30
0.0
 11
493.6708600231777
 21
1107.638097990389
 31
0.0
  0
LINE
  5
9B8D
330
1F
100
AcDbEntity
  8
0
 62
     0
 48
0.5
100
AcDbLine
 10
343.6708600231777
 20
997.6380979903892
 30
0.0
 11
343.6708600231777
 21
1083.599436165629
 31
0.0
  0
LINE
  5
9B8E
330
1F
100
AcDbEntity
  8
0
 62
     0
 48
0.5
100
AcDbLine
 10
343.6708600231777
 20
1107.638097990389
 30
0.0
 11
343.6708600231777
 21
1094.163595568635
 31
0.0
  0
LINE
  5
9B8F
330
1F
100
AcDbEntity
  8
0
 62
     0
 48
0.5
100
AcDbLine
 10
493.6708600231777
 20
1107.638097990389
 30
0.0
 11
493.6708600231776
 21
997.6380979903892
 31
0.0
  0
LINE
  5
9B90
330
1F
100
AcDbEntity
  8
0
 62
     0
 48
0.5
100
AcDbLine
 10
43.67086002317773
 20
1109.238097990389
 30
0.0
 11
193.6708600231777
 21
1109.238097990389
 31
0.0
  0
LINE
  5
9B91
330
1F
100
AcDbEntity
  8
0
 62
     0
 48
0.5
100
AcDbLine
 10
193.6708600231777
 20
1109.238097990389
 30
0.0
 11
343.6708600231777
 21
1109.238097990389
 31
0.0
  0
LINE
  5
9B92
330
1F
100
AcDbEntity
  8
0
 62
     0
 48
0.5
100
AcDbLine
 10
343.6708600231777
 20
1109.238097990389
 30
0.0
 11
493.6708600231777
 21
1109.238097990389
 31
0.0
  0
LINE
  5
9B93
330
1F
100
AcDbEntity
  8
0
 62
     0
 48
0.5
100
AcDbLine
 10
45.27086002317775
 20
997.6380979903892
 30
0.0
 11
45.27086002317775
 21
1107.638097990389
 31
0.0
  0
LINE
  5
9B94
330
1F
100
AcDbEntity
  8
0
 62
     0
 48
0.5
100
AcDbLine
 10
195.2708600231777
 20
1107.638097990389
 30
0.0
 11
195.2708600231776
 21
997.6380979903892
 31
0.0
  0
LINE
  5
9B95
330
1F
100
AcDbEntity
  8
0
 62
     0
 48
0.5
100
AcDbLine
 10
195.2708600231776
 20
997.6380979903892
 30
0.0
 11
195.2708600231776
 21
1107.638097990389
 31
0.0
  0
LINE
  5
9B96
330
1F
100
AcDbEntity
  8
0
 62
     0
 48
0.5
100
AcDbLine
 10
345.2708600231777
 20
1107.638097990389
 30
0.0
 11
345.2708600231777
 21
1094.163595568635
 31
0.0
  0
LINE
  5
9B97
330
1F
100
AcDbEntity
  8
0
 62
     0
 48
0.5
100
AcDbLine
 10
345.2708600231777
 20
997.6380979903892
 30
0.0
 11
345.2708600231777
 21
1083.599436165629
 31
0.0
  0
LINE
  5
9B98
330
1F
100
AcDbEntity
  8
0
 62
     0
 48
0.5
100
AcDbLine
 10
345.2708600231777
 20
1107.638097990389
 30
0.0
 11
345.2708600231777
 21
1094.163595568635
 31
0.0
  0
LINE
  5
9B99
330
1F
100
AcDbEntity
  8
0
 62
     0
 48
0.5
100
AcDbLine
 10
495.2708600231777
 20
1107.638097990389
 30
0.0
 11
495.2708600231776
 21
997.6380979903892
 31
0.0
  0
LINE
  5
9B9A
330
1F
100
AcDbEntity
  8
0
 62
     0
 48
0.5
100
AcDbLine
 10
43.67086002317773
 20
1109.238097990389
 30
0.0
 11
43.67086002317773
 21
1107.638097990389
 31
0.0
  0
LINE
  5
9B9B
330
1F
100
AcDbEntity
  8
0
 62
     0
 48
0.5
100
AcDbLine
 10
493.6708600231777
 20
1109.238097990389
 30
0.0
 11
495.2708600231777
 21
1109.238097990389
 31
0.0
  0
LINE
  5
9B9C
330
1F
100
AcDbEntity
  8
0
 62
     0
 48
0.5
100
AcDbLine
 10
495.2708600231777
 20
1109.238097990389
 30
0.0
 11
495.2708600231777
 21
1107.638097990389
 31
0.0
  0
LINE
  5
9C46
330
1F
100
AcDbEntity
  8
0
 62
     0
 48
0.5
100
AcDbLine
 10
45.27086002317775
 20
1077.642092626788
 30
0.0
 11
45.27086002317775
 21
1073.842092626788
 31
0.0
  0
LINE
  5
9C4E
330
1F
100
AcDbEntity
  8
0
 62
     0
 48
0.5
100
AcDbLine
 10
62.27086002317776
 20
1076.342092626788
 30
0.0
 11
78.8072768135479
 21
1076.342092626788
 31
0.0
  0
LINE
  5
9C4F
330
1F
100
AcDbEntity
  8
0
 62
     0
 48
0.5
100
AcDbLine
 10
62.27086002317776
 20
1075.142092626788
 30
0.0
 11
78.8072768135479
 21
1075.142092626788
 31
0.0
  0
LINE
  5
9C57
330
1F
100
AcDbEntity
  8
0
 62
     0
 48
0.5
100
AcDbLine
 10
193.6708600231777
 20
1077.942092626788
 30
0.0
 11
193.6708600231777
 21
1074.142092626788
 31
0.0
  0
LINE
  5
9C6C
330
1F
100
AcDbEntity
  8
0
 62
     0
 48
0.5
100
AcDbLine
 10
78.8072768135479
 20
1076.342092626788
 30
0.0
 11
176.6708600231777
 21
1076.342092626788
 31
0.0
  0
LINE
  5
9C6D
330
1F
100
AcDbEntity
  8
0
 62
     0
 48
0.5
100
AcDbLine
 10
78.8072768135479
 20
1075.142092626788
 30
0.0
 11
176.6708600231777
 21
1075.142092626788
 31
0.0
  0
MTEXT
  5
9D2A
330
1F
100
AcDbEntity
  8
0
 62
     0
 48
0.5
100
AcDbMText
 10
72.41260580852941
 20
991.3390391288688
 30
0.0
 40
6.0
 41
0.0
 71
     1
 72
     1
  1
M6ボルト（孔径%%c7～8）
 73
     1
 44
1.0
  0
LEADER
  5
9D2B
330
1F
100
AcDbEntity
  8
0
 62
     0
 48
0.5
100
AcDbLeader
  3
ISO-25
 73
     0
 40
6.0
 76
     3
 10
43.67086002317773
 20
1040.578443734425
 30
0.0
 10
68.59928748530274
 20
987.961736932036
 30
0.0
 10
70.00883622062701
 20
987.961736932036
 30
0.0
340
9D2C
213
0.0
223
-3.0
233
0.0
1001
ACAD
1000
DSTYLE
1002
{
1070
   147
1040
3.0
1070
    77
1070
     0
1002
}
  0
MTEXT
  5
9D2C
102
{ACAD_REACTORS
330
9D2B
102
}
330
1F
100
AcDbEntity
  8
0
 62
     0
 48
0.5
100
AcDbMText
 10
87.30455956487459
 20
1175.438614636807
 30
0.0
 40
6.0
 41
20.438
 71
     1
 72
     1
  1

 73
     1
 44
1.0
  0
LEADER
  5
9D2D
330
1F
100
AcDbEntity
  8
0
 62
     0
 48
0.5
100
AcDbLeader
  3
ISO-25
 40
6.0
 76
     3
 10
194.4708600231777
 20
1040.578443734425
 30
0.0
 10
219.3992874853027
 20
987.961736932036
 30
0.0
 10
220.808836220627
 20
987.961736932036
 30
0.0
213
0.0
223
-3.0
233
0.0
1001
ACAD
1000
DSTYLE
1002
{
1070
   147
1040
3.0
1070
    77
1070
     0
1002
}
  0
MTEXT
  5
9D2E
330
1F
100
AcDbEntity
  8
0
 62
     0
 48
0.5
100
AcDbMText
 10
223.2126058085294
 20
991.3390391288688
 30
0.0
 40
6.0
 41
0.0
 71
     1
 72
     1
  1
M6ジョイント（孔径%%c7～8）
 73
     1
 44
1.0
  0
LEADER
  5
9D2F
330
1F
100
AcDbEntity
  8
0
 62
     0
 48
0.5
100
AcDbLeader
  3
ISO-25
 40
6.0
 76
     3
 10
344.4708600231777
 20
1040.578443734425
 30
0.0
 10
369.3992874853027
 20
987.961736932036
 30
0.0
 10
370.8088362206269
 20
987.961736932036
 30
0.0
213
0.0
223
-3.0
233
0.0
1001
ACAD
1000
DSTYLE
1002
{
1070
   147
1040
3.0
1070
    77
1070
     0
1002
}
  0
MTEXT
  5
9D30
330
1F
100
AcDbEntity
  8
0
 62
     0
 48
0.5
100
AcDbMText
 10
373.2126058085293
 20
991.3390391288688
 30
0.0
 40
6.0
 41
0.0
 71
     1
 72
     1
  1
中間貫通部（孔径%%c7～8）
 73
     1
 44
1.0
  0
LINE
  5
9D35
330
1F
100
AcDbEntity
  8
0
 62
     0
 48
0.5
100
AcDbLine
 10
345.2708600231777
 20
1083.599436165629
 30
0.0
 11
345.2708600231777
 21
997.6380979903892
 31
0.0
  0
LINE
  5
9D36
330
1F
100
AcDbEntity
  8
0
 62
     0
 48
0.5
100
AcDbLine
 10
343.6708600231777
 20
1083.599436165629
 30
0.0
 11
343.6708600231777
 21
997.6380979903892
 31
0.0
  0
LINE
  5
9D37
330
1F
100
AcDbEntity
  8
0
 62
     0
 48
0.5
100
AcDbLine
 10
345.2708600231777
 20
1094.163595568635
 30
0.0
 11
345.2708600231777
 21
1107.638097990389
 31
0.0
  0
LINE
  5
9D39
330
1F
100
AcDbEntity
  8
0
 62
     0
 48
0.5
100
AcDbLine
 10
343.6708600231777
 20
1094.163595568635
 30
0.0
 11
343.6708600231777
 21
1107.638097990389
 31
0.0
  0
LINE
  5
9D3B
330
1F
100
AcDbEntity
  8
0
 62
     0
 48
0.5
100
AcDbLine
 10
345.2708600231777
 20
1083.599436165629
 30
0.0
 11
345.2708600231777
 21
997.6380979903892
 31
0.0
  0
LINE
  5
9D3C
330
1F
100
AcDbEntity
  8
0
 62
     0
 48
0.5
100
AcDbLine
 10
343.6708600231777
 20
1083.599436165629
 30
0.0
 11
343.6708600231777
 21
997.6380979903892
 31
0.0
  0
LINE
  5
A375
330
1F
100
AcDbEntity
  8
0
 62
     0
 48
0.5
100
AcDbLine
 10
37.95653997491524
 20
1155.883106521338
 30
0.0
 11
37.95653997491524
 21
1254.069882093297
 31
0.0
  0
LINE
  5
A376
330
1F
100
AcDbEntity
  8
0
 62
     0
 48
0.5
100
AcDbLine
 10
45.95653997491536
 20
1155.883106521338
 30
0.0
 11
45.95653997491536
 21
1254.069882093297
 31
0.0
  0
LINE
  5
A377
330
1F
100
AcDbEntity
  8
0
 62
     0
 48
0.5
100
AcDbLine
 10
493.6708600231777
 20
1254.069882093297
 30
0.0
 11
493.6708600231776
 21
1155.883106521338
 31
0.0
  0
LINE
  5
A378
330
1F
100
AcDbEntity
  8
0
 62
     0
 48
0.5
100
AcDbLine
 10
501.6708600231778
 20
1254.069882093297
 30
0.0
 11
501.6708600231778
 21
1155.883106521338
 31
0.0
  0
LINE
  5
A37C
330
1F
100
AcDbEntity
  8
0
 62
     0
 48
0.5
100
AcDbLine
 10
343.6708600231777
 20
1094.163595568635
 30
0.0
 11
343.6708600231777
 21
1083.599436165629
 31
0.0
  0
LINE
  5
A37D
330
1F
100
AcDbEntity
  8
0
 62
     0
 48
0.5
100
AcDbLine
 10
345.2708600231777
 20
1094.163595568635
 30
0.0
 11
345.2708600231777
 21
1083.599436165629
 31
0.0
  0
LINE
  5
A7EA
330
1F
100
AcDbEntity
  8
0
 62
     0
 48
0.5
100
AcDbLine
 10
45.95653997491536
 20
1237.544436758631
 30
0.0
 11
45.95653997491536
 21
1237.544436758631
 31
0.0
  0
LINE
  5
A8B8
330
1F
100
AcDbEntity
  8
0
 62
     0
 48
0.5
100
AcDbLine
 10
37.95653997491524
 20
1254.069882093297
 30
0.0
 11
37.95653997491524
 21
1262.069882093297
 31
0.0
  0
LINE
  5
A8B9
330
1F
100
AcDbEntity
  8
0
 62
     0
 48
0.5
100
AcDbLine
 10
37.95653997491524
 20
1262.069882093297
 30
0.0
 11
213.9231228043509
 21
1262.069882093297
 31
0.0
  0
LINE
  5
A8BA
330
1F
100
AcDbEntity
  8
0
 62
     0
 48
0.5
100
AcDbLine
 10
501.6708600231778
 20
1254.069882093297
 30
0.0
 11
501.6708600231778
 21
1262.069882093297
 31
0.0
  0
LINE
  5
A8BD
330
1F
100
AcDbEntity
  8
0
 62
     0
 48
0.5
100
AcDbLine
 10
45.95653997491536
 20
1254.069882093297
 30
0.0
 11
213.9231228043509
 21
1254.069882093297
 31
0.0
  0
LINE
  5
A8C0
330
1F
100
AcDbEntity
  8
0
 62
     0
 48
0.5
100
AcDbLine
 10
45.95653997491536
 20
1254.069882093297
 30
0.0
 11
37.95653997491524
 21
1254.069882093297
 31
0.0
  0
LINE
  5
A8C1
330
1F
100
AcDbEntity
  8
0
 62
     0
 48
0.5
100
AcDbLine
 10
37.95653997491524
 20
1254.069882093297
 30
0.0
 11
213.9231228043509
 21
1254.069882093297
 31
0.0
  0
LINE
  5
A8CA
330
1F
100
AcDbEntity
  8
0
 62
     0
 48
0.5
100
AcDbLine
 10
221.2875865771329
 20
1262.069882093297
 30
0.0
 11
501.6708600231778
 21
1262.069882093297
 31
0.0
  0
LINE
  5
A8CB
330
1F
100
AcDbEntity
  8
0
 62
     0
 48
0.5
100
AcDbLine
 10
221.2875865771329
 20
1254.069882093297
 30
0.0
 11
501.6708600231778
 21
1254.069882093297
 31
0.0
  0
LINE
  5
A8CC
330
1F
100
AcDbEntity
  8
0
 62
     0
 48
0.5
100
AcDbLine
 10
221.2875865771329
 20
1254.069882093297
 30
0.0
 11
493.6708600231777
 21
1254.069882093297
 31
0.0
  0
MTEXT
  5
A8CD
330
1F
100
AcDbEntity
  8
0
 62
     0
 48
0.5
100
AcDbMText
 10
65.09729207030568
 20
1189.399812961696
 30
0.0
 40
6.0
 41
0.0
 71
     1
 72
     1
  1
端子金具（長さ調整可）
 73
     1
 44
1.0
  0
MTEXT
  5
A8CE
330
1F
100
AcDbEntity
  8
0
 62
     0
 48
0.5
100
AcDbMText
 10
395.8152412587505
 20
1189.399812961696
 30
0.0
 40
6.0
 41
0.0
 71
     1
 72
     1
  1
ネジスリーブ
 73
     1
 44
1.0
  0
MTEXT
  5
A8D0
330
1F
100
AcDbEntity
  8
0
 62
     0
 48
0.5
100
AcDbMText
 10
337.8470972145205
 20
1189.399812961696
 30
0.0
 40
6.0
 41
0.0
 71
     1
 72
     1
  1
防犯カバー
 73
     1
 44
1.0
  0
LINE
  5
A8D3
330
1F
100
AcDbEntity
  8
0
 62
     0
 48
0.5
100
AcDbLine
 10
516.3640063621478
 20
1211.500823802128
 30
0.0
 11
516.3640063621478
 21
1197.500823802128
 31
0.0
  0
LINE
  5
A8D4
330
1F
100
AcDbEntity
  8
0
 62
     0
 48
0.5
100
AcDbLine
 10
516.3640063621478
 20
1211.500823802128
 30
0.0
 11
521.2640063621478
 21
1211.500823802128
 31
0.0
  0
LINE
  5
A8D5
330
1F
100
AcDbEntity
  8
0
 62
     0
 48
0.5
100
AcDbLine
 10
522.6640063621478
 20
1210.100823802128
 30
0.0
 11
522.6640063621478
 21
1198.900823802129
 31
0.0
  0
LINE
  5
A8D6
330
1F
100
AcDbEntity
  8
0
 62
     0
 48
0.5
100
AcDbLine
 10
518.5699012645105
 20
1197.500823802128
 30
0.0
 11
521.2640063621478
 21
1197.500823802128
 31
0.0
  0
LINE
  5
A8D7
330
1F
100
AcDbEntity
  8
0
 62
     0
 48
0.5
100
AcDbLine
 10
516.3640063621478
 20
1197.500823802128
 30
0.0
 11
518.5699012645105
 21
1197.500823802128
 31
0.0
  0
ARC
  5
A8D8
330
1F
100
AcDbEntity
  8
0
 62
     0
 48
0.5
100
AcDbCircle
 10
521.2640063621478
 20
1210.100823802128
 30
0.0
 40
1.399999999999999
100
AcDbArc
 50
0.0
 51
90.0
  0
ARC
  5
A8D9
330
1F
100
AcDbEntity
  8
0
 62
     0
 48
0.5
100
AcDbCircle
 10
521.2640063621478
 20
1198.900823802129
 30
0.0
 40
1.399999999999999
100
AcDbArc
 50
270.0
 51
0.0
  0
LEADER
  5
A8DA
330
1F
100
AcDbEntity
  8
0
 62
     0
 48
0.5
100
AcDbLeader
  3
ISO-25
 73
     0
 40
6.0
 41
51.99999999999999
 76
     3
 10
33.48783449067536
 20
1214.500823802125
 30
0.0
 10
14.50096111189123
 20
1240.123378048059
 30
0.0
 10
12.29927754740856
 20
1240.123378048059
 30
0.0
340
A8DB
213
0.0
223
3.0
233
0.0
1001
ACAD
1000
DSTYLE
1002
{
1070
   147
1040
3.0
1070
    77
1070
     0
1002
}
  0
MTEXT
  5
A8DB
102
{ACAD_REACTORS
330
A8DA
102
}
330
1F
100
AcDbEntity
  8
0
 62
     0
 48
0.5
100
AcDbMText
 10
9.299277547408564
 20
1237.123378048059
 30
0.0
 40
6.0
 41
0.0
 71
     9
 72
     1
  1
M10六角ボルト
 73
     1
 44
1.0
  0
LEADER
  5
A8DC
330
1F
100
AcDbEntity
  8
0
 62
     0
 48
0.5
100
AcDbLeader
  3
ISO-25
 73
     0
 40
6.000000000000001
 41
63.82857142857142
 76
     3
 10
519.8640063621478
 20
1212.276004843183
 30
0.0
 10
537.6243334658011
 20
1236.550072267376
 30
0.0
 10
540.2427915865582
 20
1236.550072267376
 30
0.0
340
A8DD
213
0.0
223
-3.0
233
0.0
1001
ACAD
1000
DSTYLE
1002
{
1070
   147
1040
3.0
1070
    77
1070
     0
1002
}
  0
MTEXT
  5
A8DD
102
{ACAD_REACTORS
330
A8DC
102
}
330
1F
100
AcDbEntity
  8
0
 62
     0
 48
0.5
100
AcDbMText
 10
543.2427915865583
 20
1239.550072267376
 30
0.0
 40
6.0
 41
0.0
 71
     1
 72
     1
  1
ボルト頭用キャップ
 73
     1
 44
1.0
  0
LINE
  5
AA49
330
1F
100
AcDbEntity
  8
0
 62
     0
 48
0.3
100
AcDbLine
 10
423.8125040989862
 20
1209.500823802133
 30
0.0
 11
418.8125040989862
 21
1209.500823802133
 31
0.0
  0
LINE
  5
AA4A
330
1F
100
AcDbEntity
  8
0
 62
     0
 48
0.3
100
AcDbLine
 10
423.8125040989862
 20
1199.500823802133
 30
0.0
 11
418.8125040989862
 21
1199.500823802133
 31
0.0
  0
CIRCLE
  5
AA4B
330
1F
100
AcDbEntity
  8
Object
 62
     0
 48
0.3
100
AcDbCircle
 10
417.3125040989861
 20
1204.500823802133
 30
0.0
 40
2.5
  0
LINE
  5
AA4C
330
1F
100
AcDbEntity
  8
0
 62
     0
 48
0.5
100
AcDbLine
 10
63.29876013320319
 20
1196.500823802133
 30
0.0
 11
127.9987601332031
 21
1196.500823802133
 31
0.0
  0
LINE
  5
AA4D
330
1F
100
AcDbEntity
  8
0
 62
     0
 48
0.5
100
AcDbLine
 10
127.9987601332031
 20
1212.500823802133
 30
0.0
 11
63.29876013320319
 21
1212.500823802133
 31
0.0
  0
LINE
  5
AA4E
330
1F
100
AcDbEntity
  8
0
 62
     0
100
AcDbLine
 10
33.4013065343089
 20
1201.640911409208
 30
0.0
 11
37.15614814243656
 21
1201.640911409208
 31
0.0
  0
LINE
  5
AA4F
330
1F
100
AcDbEntity
  8
0
 62
     0
100
AcDbLine
 10
33.4013065343089
 20
1207.379543832957
 30
0.0
 11
37.15614814243656
 21
1207.379543832957
 31
0.0
  0
LINE
  5
AA50
330
1F
100
AcDbEntity
  8
0
 62
     0
100
AcDbLine
 10
33.4013065343089
 20
1210.248860044831
 30
0.0
 11
37.81307416432162
 21
1210.248860044831
 31
0.0
  0
LINE
  5
AA51
330
1F
100
AcDbEntity
  8
0
 62
     0
100
AcDbLine
 10
33.4013065343089
 20
1210.248860044831
 30
0.0
 11
37.15614814243656
 21
1210.248860044831
 31
0.0
  0
LINE
  5
AA52
330
1F
100
AcDbEntity
  8
0
 62
     0
100
AcDbLine
 10
37.81307538713474
 20
1198.753379895697
 30
0.0
 11
33.40674891002106
 21
1198.753379895697
 31
0.0
  0
ARC
  5
AA53
330
1F
100
AcDbEntity
  8
0
 62
     0
100
AcDbCircle
 10
40.22982170947182
 20
1204.510227621082
 30
0.0
 40
7.406861347504564
100
AcDbArc
 50
157.2080385520316
 51
202.7919614479682
  0
LINE
  5
AA54
330
1F
100
AcDbEntity
  8
0
 62
     0
100
AcDbLine
 10
32.82492077804124
 20
1208.814201938894
 30
0.0
 11
32.84136800639646
 21
1200.206253303271
 31
0.0
  0
ARC
  5
AA55
330
1F
100
AcDbEntity
  8
0
 62
     0
100
AcDbCircle
 10
34.95925677252182
 20
1200.206253303271
 30
0.0
 40
2.117888766125186
100
AcDbArc
 50
137.359188147409
 51
222.6408118525909
  0
ARC
  5
AA56
330
1F
100
AcDbEntity
  8
0
 62
     0
100
AcDbCircle
 10
34.8985879314763
 20
1208.814201938894
 30
0.0
 40
2.073667153435057
100
AcDbArc
 50
136.2235944163304
 51
223.7764055836695
  0
LINE
  5
AA58
330
1F
100
AcDbEntity
  8
0
 62
     0
 48
0.5
100
AcDbLine
 10
52.00394023346087
 20
1202.203772952394
 30
0.0
 11
51.51853902075572
 21
1201.491146881897
 31
0.0
  0
LINE
  5
AA59
330
1F
100
AcDbEntity
  8
0
 62
     0
 48
0.5
100
AcDbLine
 10
51.90913971636962
 20
1206.797874651857
 30
0.0
 11
51.39475376823532
 21
1207.489869846934
 31
0.0
  0
LINE
  5
AA5A
330
1F
100
AcDbEntity
  8
0
 62
     0
100
AcDbLine
 10
37.95653997491524
 20
1210.105394234238
 30
0.0
 11
37.95653997491524
 21
1198.896253370013
 31
0.0
  0
LINE
  5
AA5B
330
1F
100
AcDbEntity
  8
0
 62
     0
100
AcDbLine
 10
37.95653997491524
 20
1204.500823802125
 30
0.0
 11
37.95653997491524
 21
1201.631507590251
 31
0.0
  0
LINE
  5
AA5C
330
1F
100
AcDbEntity
  8
0
 62
     0
 48
0.5
100
AcDbLine
 10
46.00394023346086
 20
1202.203772952394
 30
0.0
 11
45.95653997491536
 21
1204.50082380212
 31
0.0
  0
LINE
  5
AA5D
330
1F
100
AcDbEntity
  8
0
 62
     0
 48
0.5
100
AcDbLine
 10
51.51853902075572
 20
1201.491146881897
 30
0.0
 11
51.39475376823532
 21
1207.489869846934
 31
0.0
  0
LINE
  5
AA5E
330
1F
100
AcDbEntity
  8
0
 62
     0
 48
0.5
100
AcDbLine
 10
50.51853902075572
 20
1201.491146881897
 30
0.0
 11
50.39475376823531
 21
1207.489869846934
 31
0.0
  0
LINE
  5
AA5F
330
1F
100
AcDbEntity
  8
0
 62
     0
 48
0.5
100
AcDbLine
 10
51.00394023346087
 20
1202.203772952394
 30
0.0
 11
50.90913971636962
 21
1206.797874651857
 31
0.0
  0
LINE
  5
AA60
330
1F
100
AcDbEntity
  8
0
 62
     0
 48
0.5
100
AcDbLine
 10
49.51853902075573
 20
1201.491146881897
 30
0.0
 11
49.39475376823532
 21
1207.489869846934
 31
0.0
  0
LINE
  5
AA61
330
1F
100
AcDbEntity
  8
0
 62
     0
 48
0.5
100
AcDbLine
 10
50.00394023346086
 20
1202.203772952394
 30
0.0
 11
49.90913971636962
 21
1206.797874651857
 31
0.0
  0
LINE
  5
AA62
330
1F
100
AcDbEntity
  8
0
 62
     0
 48
0.5
100
AcDbLine
 10
48.51853902075572
 20
1201.491146881897
 30
0.0
 11
48.39475376823532
 21
1207.489869846934
 31
0.0
  0
LINE
  5
AA63
330
1F
100
AcDbEntity
  8
0
 62
     0
 48
0.5
100
AcDbLine
 10
49.00394023346087
 20
1202.203772952394
 30
0.0
 11
48.90913971636962
 21
1206.797874651857
 31
0.0
  0
LINE
  5
AA64
330
1F
100
AcDbEntity
  8
0
 62
     0
 48
0.5
100
AcDbLine
 10
48.00394023346086
 20
1202.203772952394
 30
0.0
 11
47.90913971636962
 21
1206.797874651857
 31
0.0
  0
LINE
  5
AA65
330
1F
100
AcDbEntity
  8
0
 62
     0
 48
0.5
100
AcDbLine
 10
47.51853902075573
 20
1201.491146881897
 30
0.0
 11
47.39475376823532
 21
1207.489869846934
 31
0.0
  0
LINE
  5
AA66
330
1F
100
AcDbEntity
  8
0
 62
     0
 48
0.5
100
AcDbLine
 10
46.51853902075572
 20
1201.491146881897
 30
0.0
 11
46.39475376823532
 21
1207.489869846934
 31
0.0
  0
LINE
  5
AA67
330
1F
100
AcDbEntity
  8
0
 62
     0
 48
0.5
100
AcDbLine
 10
47.00394023346087
 20
1202.203772952394
 30
0.0
 11
46.90913971636962
 21
1206.797874651857
 31
0.0
  0
LINE
  5
AA68
330
1F
100
AcDbEntity
  8
0
 62
     0
100
AcDbLine
 10
37.15614814243656
 20
1201.640911409208
 30
0.0
 11
37.95653997491524
 21
1201.640911409208
 31
0.0
  0
LINE
  5
AA69
330
1F
100
AcDbEntity
  8
0
 62
     0
100
AcDbLine
 10
37.81307538713474
 20
1198.753379895697
 30
0.0
 11
37.95653997491524
 21
1198.896253370013
 31
0.0
  0
LINE
  5
AA6A
330
1F
100
AcDbEntity
  8
0
 62
     0
 48
0.5
100
AcDbLine
 10
46.00394023346086
 20
1202.203772952394
 30
0.0
 11
45.95653997491536
 21
1202.134183797888
 31
0.0
  0
LINE
  5
AA6B
330
1F
100
AcDbEntity
  8
0
 62
     0
 48
0.5
100
AcDbLine
 10
48.00394023346086
 20
1202.203772952394
 30
0.0
 11
47.51853902075573
 21
1201.491146881897
 31
0.0
  0
LINE
  5
AA6C
330
1F
100
AcDbEntity
  8
0
 62
     0
 48
0.5
100
AcDbLine
 10
51.00415307262142
 20
1202.183142076974
 30
0.0
 11
51.51853902075572
 21
1201.491146881897
 31
0.0
  0
LINE
  5
AA6D
330
1F
100
AcDbEntity
  8
0
 62
     0
 48
0.5
100
AcDbLine
 10
51.00394023346087
 20
1202.203772952394
 30
0.0
 11
50.51853902075572
 21
1201.491146881897
 31
0.0
  0
LINE
  5
AA6E
330
1F
100
AcDbEntity
  8
0
 62
     0
 48
0.5
100
AcDbLine
 10
50.00415307262142
 20
1202.183142076974
 30
0.0
 11
50.51853902075572
 21
1201.491146881897
 31
0.0
  0
LINE
  5
AA6F
330
1F
100
AcDbEntity
  8
0
 62
     0
 48
0.5
100
AcDbLine
 10
50.00394023346086
 20
1202.203772952394
 30
0.0
 11
49.51853902075573
 21
1201.491146881897
 31
0.0
  0
LINE
  5
AA70
330
1F
100
AcDbEntity
  8
0
 62
     0
 48
0.5
100
AcDbLine
 10
49.00415307262142
 20
1202.183142076974
 30
0.0
 11
49.51853902075573
 21
1201.491146881897
 31
0.0
  0
LINE
  5
AA71
330
1F
100
AcDbEntity
  8
0
 62
     0
 48
0.5
100
AcDbLine
 10
49.00394023346087
 20
1202.203772952394
 30
0.0
 11
48.51853902075572
 21
1201.491146881897
 31
0.0
  0
LINE
  5
AA72
330
1F
100
AcDbEntity
  8
0
 62
     0
 48
0.5
100
AcDbLine
 10
48.00415307262142
 20
1202.183142076974
 30
0.0
 11
48.51853902075572
 21
1201.491146881897
 31
0.0
  0
LINE
  5
AA73
330
1F
100
AcDbEntity
  8
0
 62
     0
 48
0.5
100
AcDbLine
 10
47.00415307262142
 20
1202.183142076974
 30
0.0
 11
47.51853902075573
 21
1201.491146881897
 31
0.0
  0
LINE
  5
AA74
330
1F
100
AcDbEntity
  8
0
 62
     0
 48
0.5
100
AcDbLine
 10
47.00394023346087
 20
1202.203772952394
 30
0.0
 11
46.51853902075572
 21
1201.491146881897
 31
0.0
  0
LINE
  5
AA75
330
1F
100
AcDbEntity
  8
0
 62
     0
 48
0.5
100
AcDbLine
 10
46.00415307262141
 20
1202.183142076974
 30
0.0
 11
46.51853902075572
 21
1201.491146881897
 31
0.0
  0
LINE
  5
AA76
330
1F
100
AcDbEntity
  8
0
 62
     0
100
AcDbLine
 10
37.95653997491524
 20
1204.500823802125
 30
0.0
 11
37.95653997491524
 21
1203.066165696188
 31
0.0
  0
LINE
  5
AA77
330
1F
100
AcDbEntity
  8
0
 62
     0
100
AcDbLine
 10
37.15614814243656
 20
1207.379543832957
 30
0.0
 11
37.95653997491524
 21
1207.379543832957
 31
0.0
  0
LINE
  5
AA78
330
1F
100
AcDbEntity
  8
0
 62
     0
100
AcDbLine
 10
37.81307416432162
 20
1210.248860044831
 30
0.0
 11
37.95653997491524
 21
1210.105394234238
 31
0.0
  0
LINE
  5
AA79
330
1F
100
AcDbEntity
  8
0
 62
     0
 48
0.5
100
AcDbLine
 10
47.90913971636962
 20
1206.797874651857
 30
0.0
 11
47.39475376823532
 21
1207.489869846934
 31
0.0
  0
LINE
  5
AA7A
330
1F
100
AcDbEntity
  8
0
 62
     0
 48
0.5
100
AcDbLine
 10
50.90935255553029
 20
1206.777243776437
 30
0.0
 11
51.39475376823532
 21
1207.489869846934
 31
0.0
  0
LINE
  5
AA7B
330
1F
100
AcDbEntity
  8
0
 62
     0
 48
0.5
100
AcDbLine
 10
50.90913971636962
 20
1206.797874651857
 30
0.0
 11
50.39475376823531
 21
1207.489869846934
 31
0.0
  0
LINE
  5
AA7C
330
1F
100
AcDbEntity
  8
0
 62
     0
 48
0.5
100
AcDbLine
 10
49.90935255553029
 20
1206.777243776437
 30
0.0
 11
50.39475376823531
 21
1207.489869846934
 31
0.0
  0
LINE
  5
AA7D
330
1F
100
AcDbEntity
  8
0
 62
     0
 48
0.5
100
AcDbLine
 10
49.90913971636962
 20
1206.797874651857
 30
0.0
 11
49.39475376823532
 21
1207.489869846934
 31
0.0
  0
LINE
  5
AA7E
330
1F
100
AcDbEntity
  8
0
 62
     0
 48
0.5
100
AcDbLine
 10
48.90935255553029
 20
1206.777243776437
 30
0.0
 11
49.39475376823532
 21
1207.489869846934
 31
0.0
  0
LINE
  5
AA7F
330
1F
100
AcDbEntity
  8
0
 62
     0
 48
0.5
100
AcDbLine
 10
48.90913971636962
 20
1206.797874651857
 30
0.0
 11
48.39475376823532
 21
1207.489869846934
 31
0.0
  0
LINE
  5
AA80
330
1F
100
AcDbEntity
  8
0
 62
     0
 48
0.5
100
AcDbLine
 10
47.90935255553029
 20
1206.777243776437
 30
0.0
 11
48.39475376823532
 21
1207.489869846934
 31
0.0
  0
LINE
  5
AA81
330
1F
100
AcDbEntity
  8
0
 62
     0
 48
0.5
100
AcDbLine
 10
46.90935255553029
 20
1206.777243776437
 30
0.0
 11
47.39475376823532
 21
1207.489869846934
 31
0.0
  0
LINE
  5
AA82
330
1F
100
AcDbEntity
  8
0
 62
     0
 48
0.5
100
AcDbLine
 10
46.90913971636962
 20
1206.797874651857
 30
0.0
 11
46.39475376823532
 21
1207.489869846934
 31
0.0
  0
LINE
  5
AA83
330
1F
100
AcDbEntity
  8
0
 62
     0
 48
0.5
100
AcDbLine
 10
45.95653997491536
 20
1206.846520458022
 30
0.0
 11
46.39475376823532
 21
1207.489869846934
 31
0.0
  0
LINE
  5
AA84
330
1F
100
AcDbEntity
  8
0
 62
     0
 48
0.5
100
AcDbLine
 10
62.99876013320318
 20
1212.200823802133
 30
0.0
 11
62.99876013320318
 21
1196.800823802133
 31
0.0
  0
LINE
  5
AA85
330
1F
100
AcDbEntity
  8
0
 62
     0
 48
0.5
100
AcDbLine
 10
62.99876013320318
 20
1202.500823802133
 30
0.0
 11
62.99876013320318
 21
1206.500823802133
 31
0.0
  0
LINE
  5
AA86
330
1F
100
AcDbEntity
  8
0
 62
     0
 48
0.5
100
AcDbLine
 10
62.99876013320318
 20
1202.500823802133
 30
0.0
 11
62.99876013320318
 21
1204.500823802133
 31
0.0
  0
LINE
  5
AA87
330
1F
100
AcDbEntity
  8
0
 62
     0
 48
0.5
100
AcDbLine
 10
62.99876013320318
 20
1204.500823802133
 30
0.0
 11
62.99876013320318
 21
1202.500823802133
 31
0.0
  0
LINE
  5
AA88
330
1F
100
AcDbEntity
  8
0
 62
     0
 48
0.5
100
AcDbLine
 10
62.99876013320318
 20
1204.500823802133
 30
0.0
 11
62.99876013320318
 21
1202.500823802133
 31
0.0
  0
LINE
  5
AA89
330
1F
100
AcDbEntity
  8
0
 62
     0
 48
0.5
100
AcDbLine
 10
53.51853902075572
 20
1201.491146881897
 30
0.0
 11
53.39475376823532
 21
1207.489869846934
 31
0.0
  0
LINE
  5
AA8A
330
1F
100
AcDbEntity
  8
0
 62
     0
 48
0.5
100
AcDbLine
 10
52.51853902075573
 20
1201.491146881897
 30
0.0
 11
52.39475376823532
 21
1207.489869846934
 31
0.0
  0
LINE
  5
AA8B
330
1F
100
AcDbEntity
  8
0
 62
     0
 48
0.5
100
AcDbLine
 10
53.00394023346086
 20
1202.203772952394
 30
0.0
 11
52.90913971636962
 21
1206.797874651857
 31
0.0
  0
LINE
  5
AA8C
330
1F
100
AcDbEntity
  8
0
 62
     0
 48
0.5
100
AcDbLine
 10
52.00394023346087
 20
1202.203772952394
 30
0.0
 11
51.90913971636962
 21
1206.797874651857
 31
0.0
  0
LINE
  5
AA8D
330
1F
100
AcDbEntity
  8
0
 62
     0
 48
0.5
100
AcDbLine
 10
54.00394023346087
 20
1202.203772952394
 30
0.0
 11
53.90913971636962
 21
1206.797874651857
 31
0.0
  0
LINE
  5
AA8E
330
1F
100
AcDbEntity
  8
Object
 62
     0
 48
0.5
100
AcDbLine
 10
56.95153487456209
 20
1210.343023802133
 30
0.0
 11
56.95153487456209
 21
1198.658623802133
 31
0.0
  0
LINE
  5
AA8F
330
1F
100
AcDbEntity
  8
Object
 62
     0
 48
0.5
100
AcDbLine
 10
58.82403487456208
 20
1198.658623802133
 30
0.0
 11
58.82403487456208
 21
1204.500823802133
 31
0.0
  0
LINE
  5
AA90
330
1F
100
AcDbEntity
  8
0
 62
     0
 48
0.5
100
AcDbLine
 10
53.00415307262142
 20
1202.183142076974
 30
0.0
 11
53.51853902075572
 21
1201.491146881897
 31
0.0
  0
LINE
  5
AA91
330
1F
100
AcDbEntity
  8
0
 62
     0
 48
0.5
100
AcDbLine
 10
53.00394023346086
 20
1202.203772952394
 30
0.0
 11
52.51853902075573
 21
1201.491146881897
 31
0.0
  0
LINE
  5
AA92
330
1F
100
AcDbEntity
  8
0
 62
     0
 48
0.5
100
AcDbLine
 10
52.00415307262142
 20
1202.183142076974
 30
0.0
 11
52.51853902075573
 21
1201.491146881897
 31
0.0
  0
LINE
  5
AA93
330
1F
100
AcDbEntity
  8
0
 62
     0
 48
0.5
100
AcDbLine
 10
54.00394023346087
 20
1202.203772952394
 30
0.0
 11
53.51853902075572
 21
1201.491146881897
 31
0.0
  0
LINE
  5
AA94
330
1F
100
AcDbEntity
  8
Object
 62
     0
 48
0.5
100
AcDbLine
 10
57.10133487456212
 20
1198.508823802133
 30
0.0
 11
58.67423487456214
 21
1198.508823802133
 31
0.0
  0
LINE
  5
AA95
330
1F
100
AcDbEntity
  8
Object
 62
     0
 48
0.5
100
AcDbLine
 10
58.82403487456208
 20
1198.658623802133
 30
0.0
 11
58.67423487456214
 21
1198.508823802133
 31
0.0
  0
LINE
  5
AA96
330
1F
100
AcDbEntity
  8
Object
 62
     0
 48
0.5
100
AcDbLine
 10
56.95153487456209
 20
1198.658623802133
 30
0.0
 11
57.10133487456212
 21
1198.508823802133
 31
0.0
  0
LINE
  5
AA97
330
1F
100
AcDbEntity
  8
0
 62
     0
 48
0.5
100
AcDbLine
 10
63.29876013320319
 20
1196.500823802133
 30
0.0
 11
62.99876013320318
 21
1196.800823802133
 31
0.0
  0
LINE
  5
AA98
330
1F
100
AcDbEntity
  8
0
 62
     0
 48
0.5
100
AcDbLine
 10
52.90935255553029
 20
1206.777243776437
 30
0.0
 11
53.39475376823532
 21
1207.489869846934
 31
0.0
  0
LINE
  5
AA99
330
1F
100
AcDbEntity
  8
0
 62
     0
 48
0.5
100
AcDbLine
 10
53.90913971636962
 20
1206.797874651857
 30
0.0
 11
53.39475376823532
 21
1207.489869846934
 31
0.0
  0
LINE
  5
AA9A
330
1F
100
AcDbEntity
  8
0
 62
     0
 48
0.5
100
AcDbLine
 10
52.90913971636962
 20
1206.797874651857
 30
0.0
 11
52.39475376823532
 21
1207.489869846934
 31
0.0
  0
LINE
  5
AA9B
330
1F
100
AcDbEntity
  8
0
 62
     0
 48
0.5
100
AcDbLine
 10
51.90935255553029
 20
1206.777243776437
 30
0.0
 11
52.39475376823532
 21
1207.489869846934
 31
0.0
  0
LINE
  5
AA9C
330
1F
100
AcDbEntity
  8
Object
 62
     0
 48
0.5
100
AcDbLine
 10
58.67423487456214
 20
1210.492823802132
 30
0.0
 11
57.10133487456204
 21
1210.492823802132
 31
0.0
  0
LINE
  5
AA9D
330
1F
100
AcDbEntity
  8
Object
 62
     0
 48
0.5
100
AcDbLine
 10
58.67423487456214
 20
1210.492823802132
 30
0.0
 11
58.82403487456208
 21
1210.343023802133
 31
0.0
  0
LINE
  5
AA9E
330
1F
100
AcDbEntity
  8
Object
 62
     0
 48
0.5
100
AcDbLine
 10
57.10133487456204
 20
1210.492823802132
 30
0.0
 11
56.95153487456209
 21
1210.343023802133
 31
0.0
  0
LINE
  5
AA9F
330
1F
100
AcDbEntity
  8
Object
 62
     0
 48
0.5
100
AcDbLine
 10
58.82403487456208
 20
1206.052318103218
 30
0.0
 11
56.95153487456209
 21
1204.500823802133
 31
0.0
  0
LINE
  5
AAA0
330
1F
100
AcDbEntity
  8
Object
 62
     0
 48
0.5
100
AcDbLine
 10
58.82403487456208
 20
1204.500823802133
 30
0.0
 11
58.82403487456208
 21
1210.343023802133
 31
0.0
  0
LINE
  5
AAA1
330
1F
100
AcDbEntity
  8
0
 62
     0
 48
0.5
100
AcDbLine
 10
62.99876013320318
 20
1204.500823802133
 30
0.0
 11
62.99876013320318
 21
1206.500823802133
 31
0.0
  0
LINE
  5
AAA2
330
1F
100
AcDbEntity
  8
0
 62
     0
 48
0.5
100
AcDbLine
 10
63.29876013320319
 20
1212.500823802133
 30
0.0
 11
62.99876013320318
 21
1212.200823802133
 31
0.0
  0
LINE
  5
AAA3
330
1F
100
AcDbEntity
  8
0
 62
     0
 48
0.5
100
AcDbLine
 10
127.9987601332031
 20
1202.500823802133
 30
0.0
 11
213.9231228043508
 21
1202.500823802132
 31
0.0
  0
LINE
  5
AAA4
330
1F
100
AcDbEntity
  8
0
 62
     0
 48
0.5
100
AcDbLine
 10
127.9987601332031
 20
1206.500823802133
 30
0.0
 11
213.9231228043508
 21
1206.500823802133
 31
0.0
  0
LINE
  5
AAA5
330
1F
100
AcDbEntity
  8
0
 62
     0
 48
0.5
100
AcDbLine
 10
127.9987601332031
 20
1196.500823802133
 30
0.0
 11
127.9987601332031
 21
1212.500823802133
 31
0.0
  0
LINE
  5
AAA6
330
1F
100
AcDbEntity
  8
0
 62
     0
 48
0.5
100
AcDbLine
 10
127.9987601332031
 20
1204.500823802133
 30
0.0
 11
127.9987601332031
 21
1206.500823802133
 31
0.0
  0
LINE
  5
AAA7
330
1F
100
AcDbEntity
  8
0
 62
     0
 48
0.5
100
AcDbLine
 10
320.750310095101
 20
1196.500823802133
 30
0.0
 11
385.450310095101
 21
1196.500823802133
 31
0.0
  0
LINE
  5
AAA8
330
1F
100
AcDbEntity
  8
0
 62
     0
 48
0.5
100
AcDbLine
 10
385.450310095101
 20
1212.500823802133
 30
0.0
 11
320.750310095101
 21
1212.500823802133
 31
0.0
  0
LINE
  5
AAA9
330
1F
100
AcDbEntity
  8
0
 62
     0
 48
0.5
100
AcDbLine
 10
320.450310095101
 20
1212.200823802133
 30
0.0
 11
320.450310095101
 21
1196.800823802133
 31
0.0
  0
LINE
  5
AAAA
330
1F
100
AcDbEntity
  8
0
 62
     0
 48
0.5
100
AcDbLine
 10
320.450310095101
 20
1202.500823802133
 30
0.0
 11
320.450310095101
 21
1206.500823802133
 31
0.0
  0
LINE
  5
AAAB
330
1F
100
AcDbEntity
  8
0
 62
     0
 48
0.5
100
AcDbLine
 10
320.450310095101
 20
1202.500823802133
 30
0.0
 11
320.450310095101
 21
1204.500823802133
 31
0.0
  0
LINE
  5
AAAC
330
1F
100
AcDbEntity
  8
0
 62
     0
 48
0.5
100
AcDbLine
 10
320.450310095101
 20
1204.500823802133
 30
0.0
 11
320.450310095101
 21
1202.500823802133
 31
0.0
  0
LINE
  5
AAAD
330
1F
100
AcDbEntity
  8
0
 62
     0
 48
0.5
100
AcDbLine
 10
320.450310095101
 20
1204.500823802133
 30
0.0
 11
320.450310095101
 21
1202.500823802133
 31
0.0
  0
LINE
  5
AAAE
330
1F
100
AcDbEntity
  8
0
 62
     0
 48
0.5
100
AcDbLine
 10
320.750310095101
 20
1196.500823802133
 30
0.0
 11
320.450310095101
 21
1196.800823802133
 31
0.0
  0
LINE
  5
AAAF
330
1F
100
AcDbEntity
  8
0
 62
     0
 48
0.5
100
AcDbLine
 10
320.450310095101
 20
1204.500823802133
 30
0.0
 11
320.450310095101
 21
1206.500823802133
 31
0.0
  0
LINE
  5
AAB0
330
1F
100
AcDbEntity
  8
0
 62
     0
 48
0.5
100
AcDbLine
 10
320.750310095101
 20
1212.500823802133
 30
0.0
 11
320.450310095101
 21
1212.200823802133
 31
0.0
  0
LINE
  5
AAB1
330
1F
100
AcDbEntity
  8
0
 62
     0
 48
0.5
100
AcDbLine
 10
385.450310095101
 20
1202.500823802133
 30
0.0
 11
399.8125040989862
 21
1202.500823802133
 31
0.0
  0
LINE
  5
AAB2
330
1F
100
AcDbEntity
  8
0
 62
     0
 48
0.5
100
AcDbLine
 10
385.450310095101
 20
1206.500823802133
 30
0.0
 11
399.8125040989862
 21
1206.500823802133
 31
0.0
  0
LINE
  5
AAB3
330
1F
100
AcDbEntity
  8
0
 62
     0
 48
0.5
100
AcDbLine
 10
385.450310095101
 20
1196.500823802133
 30
0.0
 11
385.450310095101
 21
1212.500823802133
 31
0.0
  0
CIRCLE
  5
AAB4
330
1F
100
AcDbEntity
  8
Object
 62
     0
 48
0.3
100
AcDbCircle
 10
403.3125040989862
 20
1204.500823802133
 30
0.0
 40
2.5
  0
LWPOLYLINE
  5
AAB5
330
1F
100
AcDbEntity
  8
PHANTOM
 62
     0
 48
0.3
100
AcDbPolyline
 90
        6
 70
     1
 43
0.0
 10
402.0134659933096
 20
1205.250823802133
 10
402.0134659933096
 20
1203.750823802133
 10
403.3125040989862
 20
1203.000823802133
 10
404.6115422046629
 20
1203.750823802133
 10
404.6115422046629
 20
1205.250823802133
 10
403.3125040989862
 20
1206.000823802133
  0
LINE
  5
AAB6
330
1F
100
AcDbEntity
  8
Object
 62
     0
 48
0.3
100
AcDbLine
 10
418.8125040989862
 20
1198.500823802133
 30
0.0
 11
399.8125040989862
 21
1198.500823802133
 31
0.0
  0
LINE
  5
AAB7
330
1F
100
AcDbEntity
  8
Object
 62
     0
 48
0.3
100
AcDbLine
 10
399.8125040989862
 20
1210.500823802133
 30
0.0
 11
418.8125040989862
 21
1210.500823802133
 31
0.0
  0
LINE
  5
AAB8
330
1F
100
AcDbEntity
  8
Object
 62
     0
 48
0.3
100
AcDbLine
 10
399.8125040989862
 20
1198.500823802133
 30
0.0
 11
399.8125040989862
 21
1204.500823802133
 31
0.0
  0
LINE
  5
AAB9
330
1F
100
AcDbEntity
  8
Object
 62
     0
 48
0.3
100
AcDbLine
 10
399.8125040989862
 20
1204.500823802133
 30
0.0
 11
399.8125040989862
 21
1210.500823802133
 31
0.0
  0
CIRCLE
  5
AABA
330
1F
100
AcDbEntity
  8
Object
 62
     0
 48
0.3
100
AcDbCircle
 10
410.3125040989862
 20
1204.500823802133
 30
0.0
 40
2.5
  0
LINE
  5
AABB
330
1F
100
AcDbEntity
  8
0
 62
     0
 48
0.3
100
AcDbLine
 10
418.8125040989862
 20
1199.500823802133
 30
0.0
 11
418.8125040989862
 21
1198.500823802133
 31
0.0
  0
LWPOLYLINE
  5
AABC
330
1F
100
AcDbEntity
  8
PHANTOM
 62
     0
 48
0.3
100
AcDbPolyline
 90
        6
 70
     1
 43
0.0
 10
408.8636153595525
 20
1204.889052369787
 10
409.2518439272064
 20
1203.440163630353
 10
410.70073266664
 20
1203.051935062699
 10
411.7613928384198
 20
1204.112595234479
 10
411.373164270766
 20
1205.561483973913
 10
409.9242755313325
 20
1205.949712541567
  0
LINE
  5
AABD
330
1F
100
AcDbEntity
  8
0
 62
     0
 48
0.3
100
AcDbLine
 10
418.8125040989862
 20
1209.500823802133
 30
0.0
 11
418.8125040989862
 21
1210.500823802133
 31
0.0
  0
LWPOLYLINE
  5
AABE
330
1F
100
AcDbEntity
  8
PHANTOM
 62
     0
 48
0.3
100
AcDbPolyline
 90
        6
 70
     1
 43
0.0
 10
415.8125040989862
 20
1204.500823802133
 10
416.5625040989862
 20
1203.201785696456
 10
418.0625040989862
 20
1203.201785696456
 10
418.8125040989862
 20
1204.500823802133
 10
418.0625040989862
 20
1205.799861907809
 10
416.5625040989862
 20
1205.799861907809
  0
LINE
  5
AABF
330
1F
100
AcDbEntity
  8
Object
 62
     0
 48
0.3
100
AcDbLine
 10
480.9197809962557
 20
1206.143216406015
 30
0.0
 11
482.5197809962556
 21
1204.528054602247
 31
0.0
  0
LINE
  5
AAC0
330
1F
100
AcDbEntity
  8
Object
 62
     0
 48
0.3
100
AcDbLine
 10
482.5197809962556
 20
1210.528054602247
 30
0.0
 11
480.9197809962557
 21
1210.528054602247
 31
0.0
  0
LINE
  5
AAC1
330
1F
100
AcDbEntity
  8
Object
 62
     0
 48
0.3
100
AcDbLine
 10
480.9197809962557
 20
1198.528054602247
 30
0.0
 11
482.5197809962556
 21
1198.528054602247
 31
0.0
  0
MTEXT
  5
AAC2
330
1F
100
AcDbEntity
  8
0
 62
     0
 48
0.5
100
AcDbMText
 10
435.426997240239
 20
1224.436463885566
 30
0.0
 40
6.0
 41
0.0
 71
     1
 72
     1
  1
スレッドスリーブ
 73
     1
 44
1.0
  0
LINE
  5
AAC3
330
1F
100
AcDbEntity
  8
Object
 62
     0
 48
0.3
100
AcDbLine
 10
449.9290784973143
 20
1209.500823802133
 30
0.0
 11
452.7290784973144
 21
1209.500823802133
 31
0.0
  0
LINE
  5
AAC4
330
1F
100
AcDbEntity
  8
Object
 62
     0
 48
0.3
100
AcDbLine
 10
449.9290784973143
 20
1199.500823802133
 30
0.0
 11
452.7290784973144
 21
1199.500823802133
 31
0.0
  0
LINE
  5
AAC5
330
1F
100
AcDbEntity
  8
0
 62
     0
 48
0.5
100
AcDbLine
 10
434.8599043575318
 20
1202.203772952403
 30
0.0
 11
434.3745031448268
 21
1201.491146881906
 31
0.0
  0
LINE
  5
AAC6
330
1F
100
AcDbEntity
  8
0
 62
     0
 48
0.5
100
AcDbLine
 10
434.7651038404405
 20
1206.797874651866
 30
0.0
 11
434.2507178923061
 21
1207.489869846943
 31
0.0
  0
LINE
  5
AAC7
330
1F
100
AcDbEntity
  8
0
 62
     0
 48
0.5
100
AcDbLine
 10
427.3745031448267
 20
1201.491146881906
 30
0.0
 11
427.2507178923062
 21
1207.489869846943
 31
0.0
  0
LINE
  5
AAC8
330
1F
100
AcDbEntity
  8
0
 62
     0
 48
0.5
100
AcDbLine
 10
428.3745031448265
 20
1201.491146881906
 30
0.0
 11
428.2507178923062
 21
1207.489869846943
 31
0.0
  0
LINE
  5
AAC9
330
1F
100
AcDbEntity
  8
0
 62
     0
 48
0.5
100
AcDbLine
 10
434.3745031448268
 20
1201.491146881906
 30
0.0
 11
434.2507178923061
 21
1207.489869846943
 31
0.0
  0
LINE
  5
AACA
330
1F
100
AcDbEntity
  8
0
 62
     0
 48
0.5
100
AcDbLine
 10
433.3745031448266
 20
1201.491146881906
 30
0.0
 11
433.2507178923061
 21
1207.489869846943
 31
0.0
  0
LINE
  5
AACB
330
1F
100
AcDbEntity
  8
0
 62
     0
 48
0.5
100
AcDbLine
 10
433.8599043575317
 20
1202.203772952403
 30
0.0
 11
433.7651038404406
 21
1206.797874651866
 31
0.0
  0
LINE
  5
AACC
330
1F
100
AcDbEntity
  8
0
 62
     0
 48
0.5
100
AcDbLine
 10
432.3745031448267
 20
1201.491146881906
 30
0.0
 11
432.2507178923062
 21
1207.489869846943
 31
0.0
  0
LINE
  5
AACD
330
1F
100
AcDbEntity
  8
0
 62
     0
 48
0.5
100
AcDbLine
 10
432.8599043575318
 20
1202.203772952403
 30
0.0
 11
432.7651038404406
 21
1206.797874651866
 31
0.0
  0
LINE
  5
AACE
330
1F
100
AcDbEntity
  8
0
 62
     0
 48
0.5
100
AcDbLine
 10
431.8599043575317
 20
1202.203772952403
 30
0.0
 11
431.7651038404404
 21
1206.797874651866
 31
0.0
  0
LINE
  5
AACF
330
1F
100
AcDbEntity
  8
0
 62
     0
 48
0.5
100
AcDbLine
 10
426.8599043575317
 20
1202.203772952403
 30
0.0
 11
426.8125040989862
 21
1204.500823802133
 31
0.0
  0
LINE
  5
AAD0
330
1F
100
AcDbEntity
  8
0
 62
     0
 48
0.5
100
AcDbLine
 10
428.8599043575317
 20
1202.203772952403
 30
0.0
 11
428.7651038404406
 21
1206.797874651866
 31
0.0
  0
LINE
  5
AAD1
330
1F
100
AcDbEntity
  8
0
 62
     0
 48
0.5
100
AcDbLine
 10
427.8599043575318
 20
1202.203772952403
 30
0.0
 11
427.7651038404406
 21
1206.797874651866
 31
0.0
  0
LINE
  5
AAD2
330
1F
100
AcDbEntity
  8
0
 62
     0
 48
0.5
100
AcDbLine
 10
431.3745031448266
 20
1201.491146881906
 30
0.0
 11
431.2507178923062
 21
1207.489869846943
 31
0.0
  0
LINE
  5
AAD3
330
1F
100
AcDbEntity
  8
0
 62
     0
 48
0.5
100
AcDbLine
 10
430.3745031448266
 20
1201.491146881906
 30
0.0
 11
430.2507178923063
 21
1207.489869846943
 31
0.0
  0
LINE
  5
AAD4
330
1F
100
AcDbEntity
  8
0
 62
     0
 48
0.5
100
AcDbLine
 10
430.8599043575317
 20
1202.203772952403
 30
0.0
 11
430.7651038404405
 21
1206.797874651866
 31
0.0
  0
LINE
  5
AAD5
330
1F
100
AcDbEntity
  8
0
 62
     0
 48
0.5
100
AcDbLine
 10
429.3745031448266
 20
1201.491146881906
 30
0.0
 11
429.2507178923061
 21
1207.489869846943
 31
0.0
  0
LINE
  5
AAD6
330
1F
100
AcDbEntity
  8
0
 62
     0
 48
0.5
100
AcDbLine
 10
429.8599043575318
 20
1202.203772952403
 30
0.0
 11
429.7651038404405
 21
1206.797874651866
 31
0.0
  0
LINE
  5
AAD7
330
1F
100
AcDbEntity
  8
Object
 62
     0
 48
0.3
100
AcDbLine
 10
426.8125040989862
 20
1207.000823802133
 30
0.0
 11
426.8125040989862
 21
1202.000823802133
 31
0.0
  0
LINE
  5
AAD8
330
1F
100
AcDbEntity
  8
Object
 62
     0
 48
0.3
100
AcDbLine
 10
426.8125040989862
 20
1210.100823802133
 30
0.0
 11
426.8125040989862
 21
1198.900823802133
 31
0.0
  0
LINE
  5
AAD9
330
1F
100
AcDbEntity
  8
Object
 62
     0
 48
0.3
100
AcDbLine
 10
423.8125040989862
 20
1209.500823802133
 30
0.0
 11
423.8125040989862
 21
1198.900823802133
 31
0.0
  0
LINE
  5
AADA
330
1F
100
AcDbEntity
  8
0
 62
     0
 48
0.3
100
AcDbLine
 10
423.8125040989862
 20
1204.500823802133
 30
0.0
 11
423.8125040989862
 21
1199.500823802133
 31
0.0
  0
LINE
  5
AADB
330
1F
100
AcDbEntity
  8
Object
 62
     0
 48
0.3
100
AcDbLine
 10
426.8125040989862
 20
1202.000823802133
 30
0.0
 11
423.8125040989862
 21
1202.000823802133
 31
0.0
  0
LINE
  5
AADC
330
1F
100
AcDbEntity
  8
Object
 62
     0
 48
0.3
100
AcDbLine
 10
426.8125040989862
 20
1198.900823802133
 30
0.0
 11
423.8125040989862
 21
1198.900823802133
 31
0.0
  0
LINE
  5
AADD
330
1F
100
AcDbEntity
  8
0
 62
     0
 48
0.5
100
AcDbLine
 10
433.8601171966923
 20
1202.183142076983
 30
0.0
 11
434.3745031448268
 21
1201.491146881906
 31
0.0
  0
LINE
  5
AADE
330
1F
100
AcDbEntity
  8
0
 62
     0
 48
0.5
100
AcDbLine
 10
433.8599043575317
 20
1202.203772952403
 30
0.0
 11
433.3745031448266
 21
1201.491146881906
 31
0.0
  0
LINE
  5
AADF
330
1F
100
AcDbEntity
  8
0
 62
     0
 48
0.5
100
AcDbLine
 10
432.8601171966922
 20
1202.183142076983
 30
0.0
 11
433.3745031448266
 21
1201.491146881906
 31
0.0
  0
LINE
  5
AAE0
330
1F
100
AcDbEntity
  8
0
 62
     0
 48
0.5
100
AcDbLine
 10
432.8599043575318
 20
1202.203772952403
 30
0.0
 11
432.3745031448267
 21
1201.491146881906
 31
0.0
  0
LINE
  5
AAE1
330
1F
100
AcDbEntity
  8
0
 62
     0
 48
0.5
100
AcDbLine
 10
431.8601171966923
 20
1202.183142076983
 30
0.0
 11
432.3745031448267
 21
1201.491146881906
 31
0.0
  0
LINE
  5
AAE2
330
1F
100
AcDbEntity
  8
0
 62
     0
 48
0.5
100
AcDbLine
 10
428.8601171966923
 20
1202.183142076983
 30
0.0
 11
429.3745031448266
 21
1201.491146881906
 31
0.0
  0
LINE
  5
AAE3
330
1F
100
AcDbEntity
  8
0
 62
     0
 48
0.5
100
AcDbLine
 10
426.8599043575317
 20
1202.203772952403
 30
0.0
 11
426.8125040989861
 21
1202.134183797898
 31
0.0
  0
LINE
  5
AAE4
330
1F
100
AcDbEntity
  8
0
 62
     0
 48
0.5
100
AcDbLine
 10
427.8599043575318
 20
1202.203772952403
 30
0.0
 11
427.3745031448267
 21
1201.491146881906
 31
0.0
  0
LINE
  5
AAE5
330
1F
100
AcDbEntity
  8
0
 62
     0
 48
0.5
100
AcDbLine
 10
428.8599043575317
 20
1202.203772952403
 30
0.0
 11
428.3745031448265
 21
1201.491146881906
 31
0.0
  0
LINE
  5
AAE6
330
1F
100
AcDbEntity
  8
0
 62
     0
 48
0.5
100
AcDbLine
 10
427.8601171966922
 20
1202.183142076983
 30
0.0
 11
428.3745031448265
 21
1201.491146881906
 31
0.0
  0
LINE
  5
AAE7
330
1F
100
AcDbEntity
  8
0
 62
     0
 48
0.5
100
AcDbLine
 10
426.8601171966922
 20
1202.183142076983
 30
0.0
 11
427.3745031448267
 21
1201.491146881906
 31
0.0
  0
LINE
  5
AAE8
330
1F
100
AcDbEntity
  8
0
 62
     0
 48
0.5
100
AcDbLine
 10
430.8601171966922
 20
1202.183142076983
 30
0.0
 11
431.3745031448266
 21
1201.491146881906
 31
0.0
  0
LINE
  5
AAE9
330
1F
100
AcDbEntity
  8
0
 62
     0
 48
0.5
100
AcDbLine
 10
430.8599043575317
 20
1202.203772952403
 30
0.0
 11
430.3745031448266
 21
1201.491146881906
 31
0.0
  0
LINE
  5
AAEA
330
1F
100
AcDbEntity
  8
0
 62
     0
 48
0.5
100
AcDbLine
 10
429.8601171966923
 20
1202.183142076983
 30
0.0
 11
430.3745031448266
 21
1201.491146881906
 31
0.0
  0
LINE
  5
AAEB
330
1F
100
AcDbEntity
  8
0
 62
     0
 48
0.5
100
AcDbLine
 10
429.8599043575318
 20
1202.203772952403
 30
0.0
 11
429.3745031448266
 21
1201.491146881906
 31
0.0
  0
LINE
  5
AAEC
330
1F
100
AcDbEntity
  8
0
 62
     0
 48
0.5
100
AcDbLine
 10
431.8599043575317
 20
1202.203772952403
 30
0.0
 11
431.3745031448266
 21
1201.491146881906
 31
0.0
  0
LINE
  5
AAED
330
1F
100
AcDbEntity
  8
Object
 62
     0
 48
0.3
100
AcDbLine
 10
426.8125040989862
 20
1207.000823802133
 30
0.0
 11
423.8125040989862
 21
1207.000823802133
 31
0.0
  0
LINE
  5
AAEE
330
1F
100
AcDbEntity
  8
Object
 62
     0
 48
0.3
100
AcDbLine
 10
423.8125040989862
 20
1210.100823802133
 30
0.0
 11
426.8125040989862
 21
1210.100823802133
 31
0.0
  0
LINE
  5
AAEF
330
1F
100
AcDbEntity
  8
0
 62
     0
 48
0.3
100
AcDbLine
 10
423.8125040989862
 20
1204.500823802133
 30
0.0
 11
423.8125040989862
 21
1209.500823802133
 31
0.0
  0
LINE
  5
AAF0
330
1F
100
AcDbEntity
  8
Object
 62
     0
 48
0.3
100
AcDbLine
 10
423.8125040989862
 20
1204.500823802133
 30
0.0
 11
423.8125040989862
 21
1210.100823802133
 31
0.0
  0
LINE
  5
AAF1
330
1F
100
AcDbEntity
  8
Object
 62
     0
 48
0.3
100
AcDbLine
 10
423.8125040989862
 20
1204.500823802133
 30
0.0
 11
423.8125040989862
 21
1207.500823802133
 31
0.0
  0
LINE
  5
AAF2
330
1F
100
AcDbEntity
  8
0
 62
     0
 48
0.5
100
AcDbLine
 10
426.8125040989862
 20
1206.84652045803
 30
0.0
 11
427.2507178923062
 21
1207.489869846943
 31
0.0
  0
LINE
  5
AAF3
330
1F
100
AcDbEntity
  8
0
 62
     0
 48
0.5
100
AcDbLine
 10
427.7651038404406
 20
1206.797874651866
 30
0.0
 11
427.2507178923062
 21
1207.489869846943
 31
0.0
  0
LINE
  5
AAF4
330
1F
100
AcDbEntity
  8
0
 62
     0
 48
0.5
100
AcDbLine
 10
428.7651038404406
 20
1206.797874651866
 30
0.0
 11
428.2507178923062
 21
1207.489869846943
 31
0.0
  0
LINE
  5
AAF5
330
1F
100
AcDbEntity
  8
0
 62
     0
 48
0.5
100
AcDbLine
 10
427.7653166796012
 20
1206.777243776446
 30
0.0
 11
428.2507178923062
 21
1207.489869846943
 31
0.0
  0
LINE
  5
AAF6
330
1F
100
AcDbEntity
  8
0
 62
     0
 48
0.5
100
AcDbLine
 10
433.7653166796012
 20
1206.777243776446
 30
0.0
 11
434.2507178923061
 21
1207.489869846943
 31
0.0
  0
LINE
  5
AAF7
330
1F
100
AcDbEntity
  8
0
 62
     0
 48
0.5
100
AcDbLine
 10
433.7651038404406
 20
1206.797874651866
 30
0.0
 11
433.2507178923061
 21
1207.489869846943
 31
0.0
  0
LINE
  5
AAF8
330
1F
100
AcDbEntity
  8
0
 62
     0
 48
0.5
100
AcDbLine
 10
432.7653166796012
 20
1206.777243776446
 30
0.0
 11
433.2507178923061
 21
1207.489869846943
 31
0.0
  0
LINE
  5
AAF9
330
1F
100
AcDbEntity
  8
0
 62
     0
 48
0.5
100
AcDbLine
 10
432.7651038404406
 20
1206.797874651866
 30
0.0
 11
432.2507178923062
 21
1207.489869846943
 31
0.0
  0
LINE
  5
AAFA
330
1F
100
AcDbEntity
  8
0
 62
     0
 48
0.5
100
AcDbLine
 10
431.7653166796012
 20
1206.777243776446
 30
0.0
 11
432.2507178923062
 21
1207.489869846943
 31
0.0
  0
LINE
  5
AAFB
330
1F
100
AcDbEntity
  8
0
 62
     0
 48
0.5
100
AcDbLine
 10
430.7653166796013
 20
1206.777243776446
 30
0.0
 11
431.2507178923062
 21
1207.489869846943
 31
0.0
  0
LINE
  5
AAFC
330
1F
100
AcDbEntity
  8
0
 62
     0
 48
0.5
100
AcDbLine
 10
430.7651038404405
 20
1206.797874651866
 30
0.0
 11
430.2507178923063
 21
1207.489869846943
 31
0.0
  0
LINE
  5
AAFD
330
1F
100
AcDbEntity
  8
0
 62
     0
 48
0.5
100
AcDbLine
 10
429.7653166796012
 20
1206.777243776446
 30
0.0
 11
430.2507178923063
 21
1207.489869846943
 31
0.0
  0
LINE
  5
AAFE
330
1F
100
AcDbEntity
  8
0
 62
     0
 48
0.5
100
AcDbLine
 10
429.7651038404405
 20
1206.797874651866
 30
0.0
 11
429.2507178923061
 21
1207.489869846943
 31
0.0
  0
LINE
  5
AAFF
330
1F
100
AcDbEntity
  8
0
 62
     0
 48
0.5
100
AcDbLine
 10
431.7651038404404
 20
1206.797874651866
 30
0.0
 11
431.2507178923062
 21
1207.489869846943
 31
0.0
  0
LINE
  5
AB00
330
1F
100
AcDbEntity
  8
0
 62
     0
 48
0.5
100
AcDbLine
 10
428.7653166796014
 20
1206.777243776446
 30
0.0
 11
429.2507178923061
 21
1207.489869846943
 31
0.0
  0
LINE
  5
AB01
330
1F
100
AcDbEntity
  8
Object
 62
     0
 48
0.3
100
AcDbLine
 10
426.8125040989862
 20
1204.500823802133
 30
0.0
 11
426.8125040989862
 21
1207.000823802133
 31
0.0
  0
LINE
  5
AB02
330
1F
100
AcDbEntity
  8
0
 62
     0
 48
0.5
100
AcDbLine
 10
441.8599043575318
 20
1202.203772952403
 30
0.0
 11
441.7651038404406
 21
1206.797874651866
 31
0.0
  0
LINE
  5
AB03
330
1F
100
AcDbEntity
  8
0
 62
     0
 48
0.5
100
AcDbLine
 10
441.3745031448268
 20
1201.491146881906
 30
0.0
 11
441.2507178923061
 21
1207.489869846943
 31
0.0
  0
LINE
  5
AB04
330
1F
100
AcDbEntity
  8
0
 62
     0
 48
0.5
100
AcDbLine
 10
440.8599043575317
 20
1202.203772952403
 30
0.0
 11
440.7651038404406
 21
1206.797874651866
 31
0.0
  0
LINE
  5
AB05
330
1F
100
AcDbEntity
  8
0
 62
     0
 48
0.5
100
AcDbLine
 10
436.3745031448267
 20
1201.491146881906
 30
0.0
 11
436.2507178923062
 21
1207.489869846943
 31
0.0
  0
LINE
  5
AB06
330
1F
100
AcDbEntity
  8
0
 62
     0
 48
0.5
100
AcDbLine
 10
436.8599043575318
 20
1202.203772952403
 30
0.0
 11
436.7651038404405
 21
1206.797874651866
 31
0.0
  0
LINE
  5
AB07
330
1F
100
AcDbEntity
  8
0
 62
     0
 48
0.5
100
AcDbLine
 10
435.8599043575318
 20
1202.203772952403
 30
0.0
 11
435.7651038404405
 21
1206.797874651866
 31
0.0
  0
LINE
  5
AB08
330
1F
100
AcDbEntity
  8
0
 62
     0
 48
0.5
100
AcDbLine
 10
435.3745031448267
 20
1201.491146881906
 30
0.0
 11
435.2507178923063
 21
1207.489869846943
 31
0.0
  0
LINE
  5
AB09
330
1F
100
AcDbEntity
  8
0
 62
     0
 48
0.5
100
AcDbLine
 10
437.3745031448267
 20
1201.491146881906
 30
0.0
 11
437.2507178923062
 21
1207.489869846943
 31
0.0
  0
LINE
  5
AB0A
330
1F
100
AcDbEntity
  8
0
 62
     0
 48
0.5
100
AcDbLine
 10
437.8599043575317
 20
1202.203772952403
 30
0.0
 11
437.7651038404406
 21
1206.797874651866
 31
0.0
  0
LINE
  5
AB0B
330
1F
100
AcDbEntity
  8
0
 62
     0
 48
0.5
100
AcDbLine
 10
440.3745031448266
 20
1201.491146881906
 30
0.0
 11
440.2507178923062
 21
1207.489869846943
 31
0.0
  0
LINE
  5
AB0C
330
1F
100
AcDbEntity
  8
0
 62
     0
 48
0.5
100
AcDbLine
 10
439.8599043575318
 20
1202.203772952403
 30
0.0
 11
439.7651038404405
 21
1206.797874651866
 31
0.0
  0
LINE
  5
AB0D
330
1F
100
AcDbEntity
  8
0
 62
     0
 48
0.5
100
AcDbLine
 10
439.3745031448268
 20
1201.491146881906
 30
0.0
 11
439.2507178923061
 21
1207.489869846943
 31
0.0
  0
LINE
  5
AB0E
330
1F
100
AcDbEntity
  8
0
 62
     0
 48
0.5
100
AcDbLine
 10
438.3745031448267
 20
1201.491146881906
 30
0.0
 11
438.2507178923062
 21
1207.489869846943
 31
0.0
  0
LINE
  5
AB0F
330
1F
100
AcDbEntity
  8
0
 62
     0
 48
0.5
100
AcDbLine
 10
438.8599043575317
 20
1202.203772952403
 30
0.0
 11
438.7651038404404
 21
1206.797874651866
 31
0.0
  0
LINE
  5
AB10
330
1F
100
AcDbEntity
  8
0
 62
     0
 48
0.5
100
AcDbLine
 10
434.8599043575318
 20
1202.203772952403
 30
0.0
 11
434.7651038404405
 21
1206.797874651866
 31
0.0
  0
LINE
  5
AB11
330
1F
100
AcDbEntity
  8
Object
 62
     0
 48
0.3
100
AcDbLine
 10
449.9290784973143
 20
1209.500823802133
 30
0.0
 11
449.9290784973143
 21
1199.500823802133
 31
0.0
  0
LINE
  5
AB12
330
1F
100
AcDbEntity
  8
0
 62
     0
 48
0.5
100
AcDbLine
 10
440.8601171966922
 20
1202.183142076983
 30
0.0
 11
441.3745031448268
 21
1201.491146881906
 31
0.0
  0
LINE
  5
AB13
330
1F
100
AcDbEntity
  8
0
 62
     0
 48
0.5
100
AcDbLine
 10
441.8599043575318
 20
1202.203772952403
 30
0.0
 11
441.3745031448268
 21
1201.491146881906
 31
0.0
  0
LINE
  5
AB14
330
1F
100
AcDbEntity
  8
0
 62
     0
 48
0.5
100
AcDbLine
 10
436.8601171966924
 20
1202.183142076983
 30
0.0
 11
437.3745031448267
 21
1201.491146881906
 31
0.0
  0
LINE
  5
AB15
330
1F
100
AcDbEntity
  8
0
 62
     0
 48
0.5
100
AcDbLine
 10
435.8599043575318
 20
1202.203772952403
 30
0.0
 11
435.3745031448267
 21
1201.491146881906
 31
0.0
  0
LINE
  5
AB16
330
1F
100
AcDbEntity
  8
0
 62
     0
 48
0.5
100
AcDbLine
 10
436.8599043575318
 20
1202.203772952403
 30
0.0
 11
436.3745031448267
 21
1201.491146881906
 31
0.0
  0
LINE
  5
AB17
330
1F
100
AcDbEntity
  8
0
 62
     0
 48
0.5
100
AcDbLine
 10
435.8601171966922
 20
1202.183142076983
 30
0.0
 11
436.3745031448267
 21
1201.491146881906
 31
0.0
  0
LINE
  5
AB18
330
1F
100
AcDbEntity
  8
0
 62
     0
 48
0.5
100
AcDbLine
 10
434.8601171966922
 20
1202.183142076983
 30
0.0
 11
435.3745031448267
 21
1201.491146881906
 31
0.0
  0
LINE
  5
AB19
330
1F
100
AcDbEntity
  8
0
 62
     0
 48
0.5
100
AcDbLine
 10
439.8601171966922
 20
1202.183142076983
 30
0.0
 11
440.3745031448266
 21
1201.491146881906
 31
0.0
  0
LINE
  5
AB1A
330
1F
100
AcDbEntity
  8
0
 62
     0
 48
0.5
100
AcDbLine
 10
438.8601171966922
 20
1202.183142076983
 30
0.0
 11
439.3745031448268
 21
1201.491146881906
 31
0.0
  0
LINE
  5
AB1B
330
1F
100
AcDbEntity
  8
0
 62
     0
 48
0.5
100
AcDbLine
 10
438.8599043575317
 20
1202.203772952403
 30
0.0
 11
438.3745031448267
 21
1201.491146881906
 31
0.0
  0
LINE
  5
AB1C
330
1F
100
AcDbEntity
  8
0
 62
     0
 48
0.5
100
AcDbLine
 10
437.8601171966922
 20
1202.183142076983
 30
0.0
 11
438.3745031448267
 21
1201.491146881906
 31
0.0
  0
LINE
  5
AB1D
330
1F
100
AcDbEntity
  8
0
 62
     0
 48
0.5
100
AcDbLine
 10
437.8599043575317
 20
1202.203772952403
 30
0.0
 11
437.3745031448267
 21
1201.491146881906
 31
0.0
  0
LINE
  5
AB1E
330
1F
100
AcDbEntity
  8
0
 62
     0
 48
0.5
100
AcDbLine
 10
439.8599043575318
 20
1202.203772952403
 30
0.0
 11
439.3745031448268
 21
1201.491146881906
 31
0.0
  0
LINE
  5
AB1F
330
1F
100
AcDbEntity
  8
0
 62
     0
 48
0.5
100
AcDbLine
 10
440.8599043575317
 20
1202.203772952403
 30
0.0
 11
440.3745031448266
 21
1201.491146881906
 31
0.0
  0
LINE
  5
AB20
330
1F
100
AcDbEntity
  8
0
 62
     0
 48
0.5
100
AcDbLine
 10
440.7653166796014
 20
1206.777243776446
 30
0.0
 11
441.2507178923061
 21
1207.489869846943
 31
0.0
  0
LINE
  5
AB21
330
1F
100
AcDbEntity
  8
0
 62
     0
 48
0.5
100
AcDbLine
 10
441.7651038404406
 20
1206.797874651866
 30
0.0
 11
441.2507178923061
 21
1207.489869846943
 31
0.0
  0
LINE
  5
AB22
330
1F
100
AcDbEntity
  8
0
 62
     0
 48
0.5
100
AcDbLine
 10
440.7651038404406
 20
1206.797874651866
 30
0.0
 11
440.2507178923062
 21
1207.489869846943
 31
0.0
  0
LINE
  5
AB23
330
1F
100
AcDbEntity
  8
0
 62
     0
 48
0.5
100
AcDbLine
 10
439.7653166796012
 20
1206.777243776446
 30
0.0
 11
440.2507178923062
 21
1207.489869846943
 31
0.0
  0
LINE
  5
AB24
330
1F
100
AcDbEntity
  8
0
 62
     0
 48
0.5
100
AcDbLine
 10
438.7653166796012
 20
1206.777243776446
 30
0.0
 11
439.2507178923061
 21
1207.489869846943
 31
0.0
  0
LINE
  5
AB25
330
1F
100
AcDbEntity
  8
0
 62
     0
 48
0.5
100
AcDbLine
 10
438.7651038404404
 20
1206.797874651866
 30
0.0
 11
438.2507178923062
 21
1207.489869846943
 31
0.0
  0
LINE
  5
AB26
330
1F
100
AcDbEntity
  8
0
 62
     0
 48
0.5
100
AcDbLine
 10
439.7651038404405
 20
1206.797874651866
 30
0.0
 11
439.2507178923061
 21
1207.489869846943
 31
0.0
  0
LINE
  5
AB27
330
1F
100
AcDbEntity
  8
0
 62
     0
 48
0.5
100
AcDbLine
 10
436.7653166796012
 20
1206.777243776446
 30
0.0
 11
437.2507178923062
 21
1207.489869846943
 31
0.0
  0
LINE
  5
AB28
330
1F
100
AcDbEntity
  8
0
 62
     0
 48
0.5
100
AcDbLine
 10
436.7651038404405
 20
1206.797874651866
 30
0.0
 11
436.2507178923062
 21
1207.489869846943
 31
0.0
  0
LINE
  5
AB29
330
1F
100
AcDbEntity
  8
0
 62
     0
 48
0.5
100
AcDbLine
 10
437.7651038404406
 20
1206.797874651866
 30
0.0
 11
437.2507178923062
 21
1207.489869846943
 31
0.0
  0
LINE
  5
AB2A
330
1F
100
AcDbEntity
  8
0
 62
     0
 48
0.5
100
AcDbLine
 10
437.7653166796013
 20
1206.777243776446
 30
0.0
 11
438.2507178923062
 21
1207.489869846943
 31
0.0
  0
LINE
  5
AB2B
330
1F
100
AcDbEntity
  8
0
 62
     0
 48
0.5
100
AcDbLine
 10
435.7651038404405
 20
1206.797874651866
 30
0.0
 11
435.2507178923063
 21
1207.489869846943
 31
0.0
  0
LINE
  5
AB2C
330
1F
100
AcDbEntity
  8
0
 62
     0
 48
0.5
100
AcDbLine
 10
435.7653166796013
 20
1206.777243776446
 30
0.0
 11
436.2507178923062
 21
1207.489869846943
 31
0.0
  0
LINE
  5
AB2D
330
1F
100
AcDbEntity
  8
0
 62
     0
 48
0.5
100
AcDbLine
 10
434.7653166796012
 20
1206.777243776446
 30
0.0
 11
435.2507178923063
 21
1207.489869846943
 31
0.0
  0
LINE
  5
AB2E
330
1F
100
AcDbEntity
  8
Object
 62
     0
 48
0.3
100
AcDbLine
 10
452.7290784973144
 20
1211.000823802133
 30
0.0
 11
471.2290784973143
 21
1211.000823802133
 31
0.0
  0
LINE
  5
AB2F
330
1F
100
AcDbEntity
  8
Object
 62
     0
 48
0.3
100
AcDbLine
 10
471.2290784973143
 20
1198.000823802133
 30
0.0
 11
452.7290784973144
 21
1198.000823802133
 31
0.0
  0
LINE
  5
AB30
330
1F
100
AcDbEntity
  8
Object
 62
     0
 48
0.3
100
AcDbLine
 10
452.7290784973144
 20
1199.500823802133
 30
0.0
 11
452.7290784973144
 21
1198.000823802133
 31
0.0
  0
LINE
  5
AB31
330
1F
100
AcDbEntity
  8
Object
 62
     0
 48
0.3
100
AcDbLine
 10
452.7290784973144
 20
1209.500823802133
 30
0.0
 11
452.7290784973144
 21
1211.000823802133
 31
0.0
  0
LINE
  5
AB32
330
1F
100
AcDbEntity
  8
0
 62
     0
 48
0.3
100
AcDbLine
 10
471.7290784973143
 20
1209.500823802133
 30
0.0
 11
471.7290784973143
 21
1199.500823802133
 31
0.0
  0
LINE
  5
AB33
330
1F
100
AcDbEntity
  8
0
 62
     0
 48
0.3
100
AcDbLine
 10
474.7290784973143
 20
1209.500823802133
 30
0.0
 11
474.7290784973143
 21
1199.500823802133
 31
0.0
  0
LINE
  5
AB34
330
1F
100
AcDbEntity
  8
Object
 62
     0
 48
0.3
100
AcDbLine
 10
477.7290784973144
 20
1210.800823802132
 30
0.0
 11
477.7290784973144
 21
1198.200823802132
 31
0.0
  0
LINE
  5
AB35
330
1F
100
AcDbEntity
  8
Object
 62
     0
 48
0.3
100
AcDbLine
 10
480.9197809962557
 20
1210.528054602247
 30
0.0
 11
480.9197809962557
 21
1198.528054602247
 31
0.0
  0
LINE
  5
AB36
330
1F
100
AcDbEntity
  8
Object
 62
     0
 48
0.3
100
AcDbLine
 10
474.7290784973143
 20
1199.500823802133
 30
0.0
 11
471.7290784973143
 21
1199.500823802133
 31
0.0
  0
LINE
  5
AB38
330
1F
100
AcDbEntity
  8
Object
 62
     0
 48
0.3
100
AcDbLine
 10
471.7290784973143
 20
1199.500823802133
 30
0.0
 11
471.2290784973143
 21
1198.000823802133
 31
0.0
  0
LINE
  5
AB39
330
1F
100
AcDbEntity
  8
Object
 62
     0
 48
0.3
100
AcDbLine
 10
477.5290784973143
 20
1198.000823802133
 30
0.0
 11
474.7290784973143
 21
1198.000823802133
 31
0.0
  0
LINE
  5
AB3A
330
1F
100
AcDbEntity
  8
Object
 62
     0
 48
0.3
100
AcDbLine
 10
474.7290784973143
 20
1198.000823802133
 30
0.0
 11
474.7290784973143
 21
1199.500823802133
 31
0.0
  0
LINE
  5
AB3B
330
1F
100
AcDbEntity
  8
Object
 62
     0
 48
0.3
100
AcDbLine
 10
477.5290784973143
 20
1198.000823802133
 30
0.0
 11
477.7290784973144
 21
1198.200823802132
 31
0.0
  0
LINE
  5
AB3C
330
1F
100
AcDbEntity
  8
Object
 62
     0
 48
0.3
100
AcDbLine
 10
474.7290784973143
 20
1209.500823802133
 30
0.0
 11
471.7290784973143
 21
1209.500823802133
 31
0.0
  0
LINE
  5
AB3D
330
1F
100
AcDbEntity
  8
Object
 62
     0
 48
0.3
100
AcDbLine
 10
471.7290784973143
 20
1209.500823802133
 30
0.0
 11
471.2290784973143
 21
1211.000823802133
 31
0.0
  0
LINE
  5
AB3E
330
1F
100
AcDbEntity
  8
Object
 62
     0
 48
0.3
100
AcDbLine
 10
474.7290784973143
 20
1211.000823802133
 30
0.0
 11
477.5290784973143
 21
1211.000823802133
 31
0.0
  0
LINE
  5
AB3F
330
1F
100
AcDbEntity
  8
Object
 62
     0
 48
0.3
100
AcDbLine
 10
474.7290784973143
 20
1211.000823802133
 30
0.0
 11
474.7290784973143
 21
1209.500823802133
 31
0.0
  0
LINE
  5
AB40
330
1F
100
AcDbEntity
  8
Object
 62
     0
 48
0.3
100
AcDbLine
 10
477.7290784973144
 20
1210.800823802132
 30
0.0
 11
477.5290784973143
 21
1211.000823802133
 31
0.0
  0
LINE
  5
AB41
330
1F
100
AcDbEntity
  8
Object
 62
     0
 48
0.3
100
AcDbLine
 10
482.5197809962556
 20
1204.528054602247
 30
0.0
 11
482.5197809962556
 21
1198.528054602247
 31
0.0
  0
LINE
  5
AB42
330
1F
100
AcDbEntity
  8
0
 62
     0
 48
0.5
100
AcDbLine
 10
485.4071730264881
 20
1202.193457514691
 30
0.0
 11
485.3123725093968
 21
1206.787559214154
 31
0.0
  0
LINE
  5
AB43
330
1F
100
AcDbEntity
  8
0
 62
     0
 48
0.5
100
AcDbLine
 10
486.4071730264881
 20
1202.193457514691
 30
0.0
 11
486.3123725093968
 21
1206.787559214154
 31
0.0
  0
LINE
  5
AB44
330
1F
100
AcDbEntity
  8
0
 62
     0
 48
0.5
100
AcDbLine
 10
485.921771813783
 20
1201.480831444194
 30
0.0
 11
485.7979865612626
 21
1207.479554409231
 31
0.0
  0
LINE
  5
AB45
330
1F
100
AcDbEntity
  8
0
 62
     0
 48
0.5
100
AcDbLine
 10
487.4071730264881
 20
1202.193457514691
 30
0.0
 11
487.3123725093968
 21
1206.787559214154
 31
0.0
  0
LINE
  5
AB46
330
1F
100
AcDbEntity
  8
0
 62
     0
 48
0.5
100
AcDbLine
 10
486.9217718137829
 20
1201.480831444194
 30
0.0
 11
486.7979865612626
 21
1207.479554409231
 31
0.0
  0
LINE
  5
AB47
330
1F
100
AcDbEntity
  8
0
 62
     0
 48
0.5
100
AcDbLine
 10
488.4071730264881
 20
1202.193457514691
 30
0.0
 11
488.3123725093969
 21
1206.787559214154
 31
0.0
  0
LINE
  5
AB48
330
1F
100
AcDbEntity
  8
0
 62
     0
 48
0.5
100
AcDbLine
 10
487.9217718137829
 20
1201.480831444194
 30
0.0
 11
487.7979865612625
 21
1207.479554409231
 31
0.0
  0
LINE
  5
AB49
330
1F
100
AcDbEntity
  8
0
 62
     0
 48
0.5
100
AcDbLine
 10
489.4071730264881
 20
1202.193457514691
 30
0.0
 11
489.3123725093968
 21
1206.787559214154
 31
0.0
  0
LINE
  5
AB4A
330
1F
100
AcDbEntity
  8
0
 62
     0
 48
0.5
100
AcDbLine
 10
488.9217718137829
 20
1201.480831444194
 30
0.0
 11
488.7979865612625
 21
1207.479554409231
 31
0.0
  0
LINE
  5
AB4B
330
1F
100
AcDbEntity
  8
0
 62
     0
 48
0.5
100
AcDbLine
 10
490.4071730264881
 20
1202.193457514691
 30
0.0
 11
490.3123725093968
 21
1206.787559214154
 31
0.0
  0
LINE
  5
AB4C
330
1F
100
AcDbEntity
  8
0
 62
     0
 48
0.5
100
AcDbLine
 10
489.921771813783
 20
1201.480831444194
 30
0.0
 11
489.7979865612625
 21
1207.479554409231
 31
0.0
  0
LINE
  5
AB4D
330
1F
100
AcDbEntity
  8
0
 62
     0
 48
0.5
100
AcDbLine
 10
491.4071730264881
 20
1202.193457514691
 30
0.0
 11
491.3123725093968
 21
1206.787559214154
 31
0.0
  0
LINE
  5
AB4E
330
1F
100
AcDbEntity
  8
0
 62
     0
 48
0.5
100
AcDbLine
 10
490.921771813783
 20
1201.480831444194
 30
0.0
 11
490.7979865612626
 21
1207.479554409231
 31
0.0
  0
LINE
  5
AB4F
330
1F
100
AcDbEntity
  8
0
 62
     0
 48
0.5
100
AcDbLine
 10
492.4071730264881
 20
1202.193457514691
 30
0.0
 11
492.3123725093969
 21
1206.787559214154
 31
0.0
  0
LINE
  5
AB50
330
1F
100
AcDbEntity
  8
0
 62
     0
 48
0.5
100
AcDbLine
 10
491.9217718137829
 20
1201.480831444194
 30
0.0
 11
491.7979865612625
 21
1207.479554409231
 31
0.0
  0
LINE
  5
AB51
330
1F
100
AcDbEntity
  8
0
 62
     0
 48
0.5
100
AcDbLine
 10
493.4071730264881
 20
1202.193457514691
 30
0.0
 11
493.3123725093969
 21
1206.787559214154
 31
0.0
  0
LINE
  5
AB52
330
1F
100
AcDbEntity
  8
0
 62
     0
 48
0.5
100
AcDbLine
 10
492.9217718137829
 20
1201.480831444194
 30
0.0
 11
492.7979865612625
 21
1207.479554409231
 31
0.0
  0
LINE
  5
AB53
330
1F
100
AcDbEntity
  8
0
 62
     0
 48
0.5
100
AcDbLine
 10
489.4071730264881
 20
1202.193457514691
 30
0.0
 11
488.9217718137829
 21
1201.480831444194
 31
0.0
  0
LINE
  5
AB54
330
1F
100
AcDbEntity
  8
0
 62
     0
 48
0.5
100
AcDbLine
 10
485.4073858656486
 20
1202.172826639271
 30
0.0
 11
485.921771813783
 21
1201.480831444194
 31
0.0
  0
LINE
  5
AB55
330
1F
100
AcDbEntity
  8
0
 62
     0
 48
0.5
100
AcDbLine
 10
486.4071730264881
 20
1202.193457514691
 30
0.0
 11
485.921771813783
 21
1201.480831444194
 31
0.0
  0
LINE
  5
AB56
330
1F
100
AcDbEntity
  8
0
 62
     0
 48
0.5
100
AcDbLine
 10
486.4073858656486
 20
1202.172826639271
 30
0.0
 11
486.9217718137829
 21
1201.480831444194
 31
0.0
  0
LINE
  5
AB57
330
1F
100
AcDbEntity
  8
0
 62
     0
 48
0.5
100
AcDbLine
 10
487.4071730264881
 20
1202.193457514691
 30
0.0
 11
486.9217718137829
 21
1201.480831444194
 31
0.0
  0
LINE
  5
AB58
330
1F
100
AcDbEntity
  8
0
 62
     0
 48
0.5
100
AcDbLine
 10
487.4073858656486
 20
1202.172826639271
 30
0.0
 11
487.9217718137829
 21
1201.480831444194
 31
0.0
  0
LINE
  5
AB59
330
1F
100
AcDbEntity
  8
0
 62
     0
 48
0.5
100
AcDbLine
 10
488.4071730264881
 20
1202.193457514691
 30
0.0
 11
487.9217718137829
 21
1201.480831444194
 31
0.0
  0
LINE
  5
AB5A
330
1F
100
AcDbEntity
  8
0
 62
     0
 48
0.5
100
AcDbLine
 10
488.4073858656487
 20
1202.172826639271
 30
0.0
 11
488.9217718137829
 21
1201.480831444194
 31
0.0
  0
LINE
  5
AB5B
330
1F
100
AcDbEntity
  8
0
 62
     0
 48
0.5
100
AcDbLine
 10
489.4073858656486
 20
1202.172826639271
 30
0.0
 11
489.921771813783
 21
1201.480831444194
 31
0.0
  0
LINE
  5
AB5C
330
1F
100
AcDbEntity
  8
0
 62
     0
 48
0.5
100
AcDbLine
 10
490.4071730264881
 20
1202.193457514691
 30
0.0
 11
489.921771813783
 21
1201.480831444194
 31
0.0
  0
LINE
  5
AB5D
330
1F
100
AcDbEntity
  8
0
 62
     0
 48
0.5
100
AcDbLine
 10
490.4073858656486
 20
1202.172826639271
 30
0.0
 11
490.921771813783
 21
1201.480831444194
 31
0.0
  0
LINE
  5
AB5E
330
1F
100
AcDbEntity
  8
0
 62
     0
 48
0.5
100
AcDbLine
 10
491.4071730264881
 20
1202.193457514691
 30
0.0
 11
490.921771813783
 21
1201.480831444194
 31
0.0
  0
LINE
  5
AB5F
330
1F
100
AcDbEntity
  8
0
 62
     0
 48
0.5
100
AcDbLine
 10
491.4073858656486
 20
1202.172826639271
 30
0.0
 11
491.9217718137829
 21
1201.480831444194
 31
0.0
  0
LINE
  5
AB60
330
1F
100
AcDbEntity
  8
0
 62
     0
 48
0.5
100
AcDbLine
 10
492.4071730264881
 20
1202.193457514691
 30
0.0
 11
491.9217718137829
 21
1201.480831444194
 31
0.0
  0
LINE
  5
AB61
330
1F
100
AcDbEntity
  8
0
 62
     0
 48
0.5
100
AcDbLine
 10
492.4073858656487
 20
1202.172826639271
 30
0.0
 11
492.9217718137829
 21
1201.480831444194
 31
0.0
  0
LINE
  5
AB62
330
1F
100
AcDbEntity
  8
0
 62
     0
 48
0.5
100
AcDbLine
 10
493.4071730264881
 20
1202.193457514691
 30
0.0
 11
492.9217718137829
 21
1201.480831444194
 31
0.0
  0
LINE
  5
AB63
330
1F
100
AcDbEntity
  8
0
 62
     0
 48
0.5
100
AcDbLine
 10
493.4073858656486
 20
1202.172826639271
 30
0.0
 11
493.4785836969185
 21
1202.077045334752
 31
0.0
  0
LINE
  5
AB64
330
1F
100
AcDbEntity
  8
0
 62
     0
 48
0.5
100
AcDbLine
 10
489.3123725093968
 20
1206.787559214154
 30
0.0
 11
488.7979865612625
 21
1207.479554409231
 31
0.0
  0
LINE
  5
AB65
330
1F
100
AcDbEntity
  8
0
 62
     0
 48
0.3
100
AcDbLine
 10
482.5197809962556
 20
1204.748548641092
 30
0.0
 11
482.5197809962556
 21
1207.748548641092
 31
0.0
  0
LINE
  5
AB66
330
1F
100
AcDbEntity
  8
Object
 62
     0
 48
0.3
100
AcDbLine
 10
482.5197809962556
 20
1204.528054602247
 30
0.0
 11
482.5197809962556
 21
1210.528054602247
 31
0.0
  0
LINE
  5
AB67
330
1F
100
AcDbEntity
  8
0
 62
     0
 48
0.5
100
AcDbLine
 10
485.3125853485575
 20
1206.766928338734
 30
0.0
 11
485.7979865612626
 21
1207.479554409231
 31
0.0
  0
LINE
  5
AB68
330
1F
100
AcDbEntity
  8
0
 62
     0
 48
0.5
100
AcDbLine
 10
486.3123725093968
 20
1206.787559214154
 30
0.0
 11
485.7979865612626
 21
1207.479554409231
 31
0.0
  0
LINE
  5
AB69
330
1F
100
AcDbEntity
  8
0
 62
     0
 48
0.5
100
AcDbLine
 10
486.3125853485575
 20
1206.766928338734
 30
0.0
 11
486.7979865612626
 21
1207.479554409231
 31
0.0
  0
LINE
  5
AB6A
330
1F
100
AcDbEntity
  8
0
 62
     0
 48
0.5
100
AcDbLine
 10
487.3123725093968
 20
1206.787559214154
 30
0.0
 11
486.7979865612626
 21
1207.479554409231
 31
0.0
  0
LINE
  5
AB6B
330
1F
100
AcDbEntity
  8
0
 62
     0
 48
0.5
100
AcDbLine
 10
487.3125853485575
 20
1206.766928338734
 30
0.0
 11
487.7979865612625
 21
1207.479554409231
 31
0.0
  0
LINE
  5
AB6C
330
1F
100
AcDbEntity
  8
0
 62
     0
 48
0.5
100
AcDbLine
 10
488.3123725093969
 20
1206.787559214154
 30
0.0
 11
487.7979865612625
 21
1207.479554409231
 31
0.0
  0
LINE
  5
AB6D
330
1F
100
AcDbEntity
  8
0
 62
     0
 48
0.5
100
AcDbLine
 10
488.3125853485575
 20
1206.766928338734
 30
0.0
 11
488.7979865612625
 21
1207.479554409231
 31
0.0
  0
LINE
  5
AB6E
330
1F
100
AcDbEntity
  8
0
 62
     0
 48
0.5
100
AcDbLine
 10
489.3125853485575
 20
1206.766928338734
 30
0.0
 11
489.7979865612625
 21
1207.479554409231
 31
0.0
  0
LINE
  5
AB6F
330
1F
100
AcDbEntity
  8
0
 62
     0
 48
0.5
100
AcDbLine
 10
490.3123725093968
 20
1206.787559214154
 30
0.0
 11
489.7979865612625
 21
1207.479554409231
 31
0.0
  0
LINE
  5
AB70
330
1F
100
AcDbEntity
  8
0
 62
     0
 48
0.5
100
AcDbLine
 10
490.3125853485575
 20
1206.766928338734
 30
0.0
 11
490.7979865612626
 21
1207.479554409231
 31
0.0
  0
LINE
  5
AB71
330
1F
100
AcDbEntity
  8
0
 62
     0
 48
0.5
100
AcDbLine
 10
491.3123725093968
 20
1206.787559214154
 30
0.0
 11
490.7979865612626
 21
1207.479554409231
 31
0.0
  0
LINE
  5
AB72
330
1F
100
AcDbEntity
  8
0
 62
     0
 48
0.5
100
AcDbLine
 10
491.3125853485575
 20
1206.766928338734
 30
0.0
 11
491.7979865612625
 21
1207.479554409231
 31
0.0
  0
LINE
  5
AB73
330
1F
100
AcDbEntity
  8
0
 62
     0
 48
0.5
100
AcDbLine
 10
492.3123725093969
 20
1206.787559214154
 30
0.0
 11
491.7979865612625
 21
1207.479554409231
 31
0.0
  0
LINE
  5
AB74
330
1F
100
AcDbEntity
  8
0
 62
     0
 48
0.5
100
AcDbLine
 10
492.3125853485575
 20
1206.766928338734
 30
0.0
 11
492.7979865612625
 21
1207.479554409231
 31
0.0
  0
LINE
  5
AB75
330
1F
100
AcDbEntity
  8
0
 62
     0
 48
0.5
100
AcDbLine
 10
493.3123725093969
 20
1206.787559214154
 30
0.0
 11
492.7979865612625
 21
1207.479554409231
 31
0.0
  0
LINE
  5
AB76
330
1F
100
AcDbEntity
  8
0
 62
     0
 48
0.5
100
AcDbLine
 10
493.3125853485575
 20
1206.766928338734
 30
0.0
 11
493.4785836969185
 21
1207.010633437949
 31
0.0
  0
LINE
  5
ABA9
330
1F
100
AcDbEntity
  8
0
 62
     0
100
AcDbLine
 10
506.2260934637841
 20
1207.360736195043
 30
0.0
 11
502.4712518556565
 21
1207.360736195043
 31
0.0
  0
LINE
  5
ABAA
330
1F
100
AcDbEntity
  8
0
 62
     0
100
AcDbLine
 10
506.2260934637841
 20
1201.622103771294
 30
0.0
 11
502.4712518556565
 21
1201.622103771294
 31
0.0
  0
LINE
  5
ABAB
330
1F
100
AcDbEntity
  8
0
 62
     0
100
AcDbLine
 10
506.2260934637841
 20
1198.752787559419
 30
0.0
 11
501.8143258337715
 21
1198.752787559419
 31
0.0
  0
LINE
  5
ABAC
330
1F
100
AcDbEntity
  8
0
 62
     0
100
AcDbLine
 10
506.2260934637841
 20
1198.752787559419
 30
0.0
 11
502.4712518556565
 21
1198.752787559419
 31
0.0
  0
LINE
  5
ABAD
330
1F
100
AcDbEntity
  8
0
 62
     0
100
AcDbLine
 10
501.8143246109583
 20
1210.248267708553
 30
0.0
 11
506.220651088072
 21
1210.248267708553
 31
0.0
  0
ARC
  5
ABAE
330
1F
100
AcDbEntity
  8
0
 62
     0
100
AcDbCircle
 10
499.3975782886212
 20
1204.491419983169
 30
0.0
 40
7.406861347504564
100
AcDbArc
 50
337.2080385520316
 51
22.79196144796827
  0
LINE
  5
ABAF
330
1F
100
AcDbEntity
  8
0
 62
     0
100
AcDbLine
 10
506.8024792200518
 20
1200.187445665357
 30
0.0
 11
506.7860319916966
 21
1208.79539430098
 31
0.0
  0
ARC
  5
ABB0
330
1F
100
AcDbEntity
  8
0
 62
     0
100
AcDbCircle
 10
504.6681432255712
 20
1208.79539430098
 30
0.0
 40
2.117888766125186
100
AcDbArc
 50
317.359188147409
 51
42.64081185259096
  0
ARC
  5
ABB1
330
1F
100
AcDbEntity
  8
0
 62
     0
100
AcDbCircle
 10
504.7288120666167
 20
1200.187445665357
 30
0.0
 40
2.073667153435057
100
AcDbArc
 50
316.2235944163304
 51
43.77640558366958
  0
LINE
  5
ABB2
330
1F
100
AcDbEntity
  8
0
 62
     0
100
AcDbLine
 10
501.6708600231778
 20
1198.896253370013
 30
0.0
 11
501.6708600231778
 21
1210.105394234238
 31
0.0
  0
LINE
  5
ABB3
330
1F
100
AcDbEntity
  8
0
 62
     0
100
AcDbLine
 10
501.6708600231778
 20
1204.500823802125
 30
0.0
 11
501.6708600231778
 21
1207.370140014
 31
0.0
  0
LINE
  5
ABB4
330
1F
100
AcDbEntity
  8
0
 62
     0
100
AcDbLine
 10
502.4712518556565
 20
1207.360736195043
 30
0.0
 11
501.6708600231778
 21
1207.360736195043
 31
0.0
  0
LINE
  5
ABB5
330
1F
100
AcDbEntity
  8
0
 62
     0
100
AcDbLine
 10
501.8143246109583
 20
1210.248267708553
 30
0.0
 11
501.6708600231778
 21
1210.105394234238
 31
0.0
  0
LINE
  5
ABB6
330
1F
100
AcDbEntity
  8
0
 62
     0
100
AcDbLine
 10
501.6708600231778
 20
1204.500823802125
 30
0.0
 11
501.6708600231778
 21
1205.935481908062
 31
0.0
  0
LINE
  5
ABB7
330
1F
100
AcDbEntity
  8
0
 62
     0
100
AcDbLine
 10
502.4712518556565
 20
1201.622103771294
 30
0.0
 11
501.6708600231778
 21
1201.622103771294
 31
0.0
  0
LINE
  5
ABB8
330
1F
100
AcDbEntity
  8
0
 62
     0
100
AcDbLine
 10
501.8143258337715
 20
1198.752787559419
 30
0.0
 11
501.6708600231778
 21
1198.896253370013
 31
0.0
  0
LINE
  5
ABBD
330
1F
100
AcDbEntity
  8
0
 62
     0
 48
0.5
100
AcDbLine
 10
221.2875865771329
 20
1206.500823802132
 30
0.0
 11
320.450310095101
 21
1206.500823802133
 31
0.0
  0
LINE
  5
ABC0
330
1F
100
AcDbEntity
  8
0
 62
     0
 48
0.5
100
AcDbLine
 10
221.2875865771329
 20
1202.500823802132
 30
0.0
 11
320.450310095101
 21
1202.500823802132
 31
0.0
  0
LINE
  5
ABC3
330
1F
100
AcDbEntity
  8
0
 62
     0
 48
0.5
100
AcDbLine
 10
45.27086002317775
 20
1075.742092626788
 30
0.0
 11
45.27086002317775
 21
1077.342092626788
 31
0.0
  0
LINE
  5
ABC4
330
1F
100
AcDbEntity
  8
0
 62
     0
 48
0.5
100
AcDbLine
 10
45.27086002317775
 20
1077.342092626788
 30
0.0
 11
58.27086002317776
 21
1077.342092626788
 31
0.0
  0
LINE
  5
ABC5
330
1F
100
AcDbEntity
  8
0
 62
     0
 48
0.5
100
AcDbLine
 10
58.27086002317776
 20
1077.342092626788
 30
0.0
 11
58.27086002317776
 21
1074.142092626788
 31
0.0
  0
LINE
  5
ABC6
330
1F
100
AcDbEntity
  8
0
 62
     0
 48
0.5
100
AcDbLine
 10
58.27086002317776
 20
1074.142092626788
 30
0.0
 11
45.27086002317775
 21
1074.142092626788
 31
0.0
  0
LINE
  5
ABC7
330
1F
100
AcDbEntity
  8
0
 62
     0
100
AcDbLine
 10
42.75981333505646
 20
1075.170110148204
 30
0.0
 11
43.510781656682
 21
1075.170110148204
 31
0.0
  0
LINE
  5
ABC8
330
1F
100
AcDbEntity
  8
0
 62
     0
100
AcDbLine
 10
42.75981333505646
 20
1076.317836632954
 30
0.0
 11
43.510781656682
 21
1076.317836632954
 31
0.0
  0
LINE
  5
ABC9
330
1F
100
AcDbEntity
  8
0
 62
     0
100
AcDbLine
 10
42.75981333505646
 20
1076.891699875329
 30
0.0
 11
43.642166861059
 21
1076.891699875329
 31
0.0
  0
LINE
  5
ABCA
330
1F
100
AcDbEntity
  8
0
 62
     0
100
AcDbLine
 10
42.75981333505646
 20
1076.891699875329
 30
0.0
 11
43.510781656682
 21
1076.891699875329
 31
0.0
  0
LINE
  5
ABCB
330
1F
100
AcDbEntity
  8
0
 62
     0
100
AcDbLine
 10
43.64216710562163
 20
1074.592603845502
 30
0.0
 11
42.7609018101989
 21
1074.592603845502
 31
0.0
  0
ARC
  5
ABCC
330
1F
100
AcDbEntity
  8
0
 62
     0
100
AcDbCircle
 10
44.12551637008905
 20
1075.743973390579
 30
0.0
 40
1.481372269500913
100
AcDbArc
 50
157.2080385520316
 51
202.7919614479682
  0
LINE
  5
ABCD
330
1F
100
AcDbEntity
  8
0
 62
     0
100
AcDbLine
 10
42.64453618380294
 20
1076.604768254142
 30
0.0
 11
42.64782562947398
 21
1074.883178527017
 31
0.0
  0
ARC
  5
ABCE
330
1F
100
AcDbEntity
  8
0
 62
     0
100
AcDbCircle
 10
43.07140338269905
 20
1074.883178527017
 30
0.0
 40
0.4235777532250373
100
AcDbArc
 50
137.359188147409
 51
222.6408118525909
  0
ARC
  5
ABCF
330
1F
100
AcDbEntity
  8
0
 62
     0
100
AcDbCircle
 10
43.05926961448995
 20
1076.604768254142
 30
0.0
 40
0.4147334306870116
100
AcDbArc
 50
136.2235944163304
 51
223.7764055836695
  0
LINE
  5
ABD0
330
1F
100
AcDbEntity
  8
0
 62
     0
100
AcDbLine
 10
43.67086002317773
 20
1076.86300671321
 30
0.0
 11
43.67086002317773
 21
1074.621178540365
 31
0.0
  0
LINE
  5
ABD1
330
1F
100
AcDbEntity
  8
0
 62
     0
100
AcDbLine
 10
43.67086002317773
 20
1075.742092626788
 30
0.0
 11
43.67086002317773
 21
1075.168229384413
 31
0.0
  0
LINE
  5
ABD2
330
1F
100
AcDbEntity
  8
0
 62
     0
100
AcDbLine
 10
43.510781656682
 20
1075.170110148204
 30
0.0
 11
43.67086002317773
 21
1075.170110148204
 31
0.0
  0
LINE
  5
ABD3
330
1F
100
AcDbEntity
  8
0
 62
     0
100
AcDbLine
 10
43.64216710562163
 20
1074.592603845502
 30
0.0
 11
43.67086002317773
 21
1074.621178540365
 31
0.0
  0
LINE
  5
ABD4
330
1F
100
AcDbEntity
  8
0
 62
     0
100
AcDbLine
 10
43.67086002317773
 20
1075.742092626788
 30
0.0
 11
43.67086002317773
 21
1075.4551610056
 31
0.0
  0
LINE
  5
ABD5
330
1F
100
AcDbEntity
  8
0
 62
     0
100
AcDbLine
 10
43.510781656682
 20
1076.317836632954
 30
0.0
 11
43.67086002317773
 21
1076.317836632954
 31
0.0
  0
LINE
  5
ABD6
330
1F
100
AcDbEntity
  8
0
 62
     0
100
AcDbLine
 10
43.642166861059
 20
1076.891699875329
 30
0.0
 11
43.67086002317773
 21
1076.86300671321
 31
0.0
  0
LINE
  5
ABD8
330
1F
100
AcDbEntity
  8
0
 62
     0
 48
0.5
100
AcDbLine
 10
193.6708600231777
 20
1074.142092626788
 30
0.0
 11
180.7708600231777
 21
1074.142092626788
 31
0.0
  0
LINE
  5
ABD9
330
1F
100
AcDbEntity
  8
0
 62
     0
 48
0.5
100
AcDbLine
 10
180.7708600231777
 20
1077.342092626788
 30
0.0
 11
193.6708600231777
 21
1077.342092626788
 31
0.0
  0
LINE
  5
ABDC
330
1F
100
AcDbEntity
  8
0
 62
     0
 48
0.5
100
AcDbLine
 10
193.6708600231777
 20
1077.342092626788
 30
0.0
 11
193.6708600231777
 21
1074.142092626788
 31
0.0
  0
LINE
  5
ABDF
330
1F
100
AcDbEntity
  8
0
 62
     0
100
AcDbLine
 10
495.2708600231777
 20
1074.621178540365
 30
0.0
 11
495.2708600231777
 21
1076.86300671321
 31
0.0
  0
LINE
  5
ABE0
330
1F
100
AcDbEntity
  8
0
 62
     0
100
AcDbLine
 10
496.2971838625525
 20
1074.879416999434
 30
0.0
 11
496.2938944168814
 21
1076.601006726559
 31
0.0
  0
ARC
  5
ABE1
330
1F
100
AcDbEntity
  8
0
 62
     0
100
AcDbCircle
 10
494.8162036762663
 20
1075.740211862996
 30
0.0
 40
1.481372269500913
100
AcDbArc
 50
337.2080385520316
 51
22.79196144796827
  0
LINE
  5
ABE2
330
1F
100
AcDbEntity
  8
0
 62
     0
100
AcDbLine
 10
495.2995529407338
 20
1076.891581408073
 30
0.0
 11
496.1808182361565
 21
1076.891581408073
 31
0.0
  0
LINE
  5
ABE3
330
1F
100
AcDbEntity
  8
0
 62
     0
100
AcDbLine
 10
496.181906711299
 20
1076.314075105371
 30
0.0
 11
495.4309383896734
 21
1076.314075105371
 31
0.0
  0
ARC
  5
ABE4
330
1F
100
AcDbEntity
  8
0
 62
     0
100
AcDbCircle
 10
495.8703166636563
 20
1076.601006726559
 30
0.0
 40
0.4235777532250373
100
AcDbArc
 50
317.359188147409
 51
42.64081185259096
  0
LINE
  5
ABE5
330
1F
100
AcDbEntity
  8
0
 62
     0
100
AcDbLine
 10
495.2708600231777
 20
1075.742092626788
 30
0.0
 11
495.2708600231777
 21
1076.029024247975
 31
0.0
  0
LINE
  5
ABE6
330
1F
100
AcDbEntity
  8
0
 62
     0
100
AcDbLine
 10
495.2995529407338
 20
1076.891581408073
 30
0.0
 11
495.2708600231777
 21
1076.86300671321
 31
0.0
  0
LINE
  5
ABE7
330
1F
100
AcDbEntity
  8
0
 62
     0
100
AcDbLine
 10
495.4309383896734
 20
1076.314075105371
 30
0.0
 11
495.2708600231777
 21
1076.314075105371
 31
0.0
  0
LINE
  5
ABE8
330
1F
100
AcDbEntity
  8
0
 62
     0
100
AcDbLine
 10
495.2708600231777
 20
1075.742092626788
 30
0.0
 11
495.2708600231777
 21
1076.315955869163
 31
0.0
  0
LINE
  5
ABE9
330
1F
100
AcDbEntity
  8
0
 62
     0
100
AcDbLine
 10
496.181906711299
 20
1074.592485378247
 30
0.0
 11
495.4309383896734
 21
1074.592485378247
 31
0.0
  0
LINE
  5
ABEA
330
1F
100
AcDbEntity
  8
0
 62
     0
100
AcDbLine
 10
496.181906711299
 20
1074.592485378247
 30
0.0
 11
495.2995531852963
 21
1074.592485378247
 31
0.0
  0
LINE
  5
ABEB
330
1F
100
AcDbEntity
  8
0
 62
     0
100
AcDbLine
 10
496.181906711299
 20
1075.166348620621
 30
0.0
 11
495.4309383896734
 21
1075.166348620621
 31
0.0
  0
ARC
  5
ABEC
330
1F
100
AcDbEntity
  8
0
 62
     0
100
AcDbCircle
 10
495.8824504318655
 20
1074.879416999434
 30
0.0
 40
0.4147334306870116
100
AcDbArc
 50
316.2235944163304
 51
43.77640558366958
  0
LINE
  5
ABED
330
1F
100
AcDbEntity
  8
0
 62
     0
100
AcDbLine
 10
495.2995531852963
 20
1074.592485378247
 30
0.0
 11
495.2708600231777
 21
1074.621178540365
 31
0.0
  0
LINE
  5
ABEE
330
1F
100
AcDbEntity
  8
0
 62
     0
100
AcDbLine
 10
495.4309383896734
 20
1075.166348620621
 30
0.0
 11
495.2708600231777
 21
1075.166348620621
 31
0.0
  0
LINE
  5
ABEF
330
1F
100
AcDbEntity
  8
0
 62
     0
 48
0.5
100
AcDbLine
 10
180.6708600231777
 20
1077.242092626788
 30
0.0
 11
180.6708600231777
 21
1074.242092626788
 31
0.0
  0
LINE
  5
ABF1
330
1F
100
AcDbEntity
  8
0
 62
     0
 48
0.5
100
AcDbLine
 10
180.7708600231777
 20
1077.342092626788
 30
0.0
 11
180.6708600231777
 21
1077.242092626788
 31
0.0
  0
LINE
  5
ABF2
330
1F
100
AcDbEntity
  8
0
 62
     0
 48
0.5
100
AcDbLine
 10
180.6708600231777
 20
1074.242092626788
 30
0.0
 11
180.7708600231777
 21
1074.142092626788
 31
0.0
  0
LINE
  5
ABF3
330
1F
100
AcDbEntity
  8
0
 62
     0
 48
0.5
100
AcDbLine
 10
493.6708600231776
 20
1074.142092626788
 30
0.0
 11
480.7708600231776
 21
1074.142092626788
 31
0.0
  0
LINE
  5
ABF4
330
1F
100
AcDbEntity
  8
0
 62
     0
 48
0.5
100
AcDbLine
 10
480.7708600231776
 20
1077.342092626788
 30
0.0
 11
493.6708600231776
 21
1077.342092626788
 31
0.0
  0
LINE
  5
ABF5
330
1F
100
AcDbEntity
  8
0
 62
     0
 48
0.5
100
AcDbLine
 10
480.6708600231776
 20
1077.242092626788
 30
0.0
 11
480.6708600231776
 21
1074.242092626788
 31
0.0
  0
LINE
  5
ABF6
330
1F
100
AcDbEntity
  8
0
 62
     0
 48
0.5
100
AcDbLine
 10
480.6708600231776
 20
1074.242092626788
 30
0.0
 11
480.7708600231776
 21
1074.142092626788
 31
0.0
  0
LINE
  5
ABF7
330
1F
100
AcDbEntity
  8
0
 62
     0
 48
0.5
100
AcDbLine
 10
480.7708600231776
 20
1077.342092626788
 30
0.0
 11
480.6708600231776
 21
1077.242092626788
 31
0.0
  0
LINE
  5
ABF8
330
1F
100
AcDbEntity
  8
0
 62
     0
 48
0.5
100
AcDbLine
 10
493.6708600231776
 20
1077.942092626788
 30
0.0
 11
493.6708600231776
 21
1074.142092626788
 31
0.0
  0
LINE
  5
ABF9
330
1F
100
AcDbEntity
  8
0
 62
     0
 48
0.5
100
AcDbLine
 10
493.6708600231776
 20
1077.342092626788
 30
0.0
 11
493.6708600231776
 21
1074.142092626788
 31
0.0
  0
LINE
  5
ABFB
330
1F
100
AcDbEntity
  8
0
 62
     0
 48
0.5
100
AcDbLine
 10
62.27086002317776
 20
1075.142092626788
 30
0.0
 11
58.27086002317776
 21
1075.142092626788
 31
0.0
  0
LINE
  5
ABFC
330
1F
100
AcDbEntity
  8
0
 62
     0
 48
0.5
100
AcDbLine
 10
62.27086002317776
 20
1076.342092626788
 30
0.0
 11
58.27086002317776
 21
1076.342092626788
 31
0.0
  0
LINE
  5
ABFD
330
1F
100
AcDbEntity
  8
0
 62
     0
 48
0.5
100
AcDbLine
 10
176.6708600231777
 20
1075.142092626788
 30
0.0
 11
180.6708600231777
 21
1075.142092626788
 31
0.0
  0
LINE
  5
ABFE
330
1F
100
AcDbEntity
  8
0
 62
     0
 48
0.5
100
AcDbLine
 10
176.6708600231777
 20
1076.342092626788
 30
0.0
 11
180.6708600231777
 21
1076.342092626788
 31
0.0
  0
LINE
  5
ABFF
330
1F
100
AcDbEntity
  8
0
 62
     0
 48
0.5
100
AcDbLine
 10
195.2708600231777
 20
1077.342092626788
 30
0.0
 11
208.1708600231777
 21
1077.342092626788
 31
0.0
  0
LINE
  5
AC00
330
1F
100
AcDbEntity
  8
0
 62
     0
 48
0.5
100
AcDbLine
 10
208.1708600231777
 20
1074.142092626787
 30
0.0
 11
195.2708600231777
 21
1074.142092626788
 31
0.0
  0
LINE
  5
AC01
330
1F
100
AcDbEntity
  8
0
 62
     0
 48
0.5
100
AcDbLine
 10
212.2708600231777
 20
1075.142092626788
 30
0.0
 11
208.2708600231777
 21
1075.142092626788
 31
0.0
  0
LINE
  5
AC02
330
1F
100
AcDbEntity
  8
0
 62
     0
 48
0.5
100
AcDbLine
 10
212.2708600231777
 20
1076.342092626788
 30
0.0
 11
208.2708600231777
 21
1076.342092626788
 31
0.0
  0
LINE
  5
AC03
330
1F
100
AcDbEntity
  8
0
 62
     0
 48
0.5
100
AcDbLine
 10
208.2708600231777
 20
1074.242092626787
 30
0.0
 11
208.2708600231777
 21
1077.242092626788
 31
0.0
  0
LINE
  5
AC04
330
1F
100
AcDbEntity
  8
0
 62
     0
 48
0.5
100
AcDbLine
 10
208.2708600231777
 20
1077.242092626788
 30
0.0
 11
208.1708600231777
 21
1077.342092626788
 31
0.0
  0
LINE
  5
AC05
330
1F
100
AcDbEntity
  8
0
 62
     0
 48
0.5
100
AcDbLine
 10
208.1708600231777
 20
1074.142092626787
 30
0.0
 11
208.2708600231777
 21
1074.242092626787
 31
0.0
  0
LINE
  5
AC06
330
1F
100
AcDbEntity
  8
0
 62
     0
 48
0.5
100
AcDbLine
 10
195.2708600231777
 20
1073.542092626788
 30
0.0
 11
195.2708600231777
 21
1077.342092626788
 31
0.0
  0
LINE
  5
AC07
330
1F
100
AcDbEntity
  8
0
 62
     0
 48
0.5
100
AcDbLine
 10
195.2708600231777
 20
1074.142092626788
 30
0.0
 11
195.2708600231777
 21
1077.342092626788
 31
0.0
  0
LINE
  5
AC08
330
1F
100
AcDbEntity
  8
0
 62
     0
 48
0.5
100
AcDbLine
 10
212.2708600231777
 20
1076.342092626788
 30
0.0
 11
343.6708600231777
 21
1076.342092626785
 31
0.0
  0
LINE
  5
AC0A
330
1F
100
AcDbEntity
  8
0
 62
     0
 48
0.5
100
AcDbLine
 10
212.2708600231777
 20
1075.142092626788
 30
0.0
 11
343.6708600231777
 21
1075.142092626785
 31
0.0
  0
LINE
  5
AC0B
330
1F
100
AcDbEntity
  8
0
 62
     0
 48
0.5
100
AcDbLine
 10
345.2708600231777
 20
1076.342092626785
 30
0.0
 11
480.6708600231776
 21
1076.342092626782
 31
0.0
  0
LINE
  5
AC0C
330
1F
100
AcDbEntity
  8
0
 62
     0
 48
0.5
100
AcDbLine
 10
345.2708600231777
 20
1075.142092626785
 30
0.0
 11
480.6708600231776
 21
1075.142092626783
 31
0.0
  0
LINE
  5
AC0D
330
1F
100
AcDbEntity
  8
0
 62
     0
 48
0.5
100
AcDbLine
 10
212.2708600231777
 20
1041.342092626788
 30
0.0
 11
343.6708600231777
 21
1041.342092626786
 31
0.0
  0
LINE
  5
AC0E
330
1F
100
AcDbEntity
  8
0
 62
     0
 48
0.5
100
AcDbLine
 10
212.2708600231777
 20
1042.542092626788
 30
0.0
 11
343.6708600231777
 21
1042.542092626785
 31
0.0
  0
LINE
  5
AC0F
330
1F
100
AcDbEntity
  8
0
 62
     0
 48
0.5
100
AcDbLine
 10
78.8072768135479
 20
1041.342092626788
 30
0.0
 11
176.6708600231777
 21
1041.342092626788
 31
0.0
  0
LINE
  5
AC10
330
1F
100
AcDbEntity
  8
0
 62
     0
 48
0.5
100
AcDbLine
 10
78.8072768135479
 20
1042.542092626788
 30
0.0
 11
176.6708600231777
 21
1042.542092626788
 31
0.0
  0
LINE
  5
AC11
330
1F
100
AcDbEntity
  8
0
 62
     0
 48
0.5
100
AcDbLine
 10
62.27086002317776
 20
1041.342092626788
 30
0.0
 11
78.8072768135479
 21
1041.342092626788
 31
0.0
  0
LINE
  5
AC12
330
1F
100
AcDbEntity
  8
0
 62
     0
 48
0.5
100
AcDbLine
 10
62.27086002317776
 20
1042.542092626788
 30
0.0
 11
78.8072768135479
 21
1042.542092626788
 31
0.0
  0
LINE
  5
AC13
330
1F
100
AcDbEntity
  8
0
 62
     0
 48
0.5
100
AcDbLine
 10
58.27086002317776
 20
1040.342092626788
 30
0.0
 11
45.27086002317775
 21
1040.342092626788
 31
0.0
  0
LINE
  5
AC14
330
1F
100
AcDbEntity
  8
0
 62
     0
 48
0.5
100
AcDbLine
 10
45.27086002317775
 20
1043.542092626788
 30
0.0
 11
58.27086002317776
 21
1043.542092626788
 31
0.0
  0
LINE
  5
AC15
330
1F
100
AcDbEntity
  8
0
 62
     0
100
AcDbLine
 10
43.67086002317773
 20
1043.063006713211
 30
0.0
 11
43.67086002317773
 21
1040.821178540366
 31
0.0
  0
LINE
  5
AC16
330
1F
100
AcDbEntity
  8
0
 62
     0
100
AcDbLine
 10
42.64453618380294
 20
1042.804768254142
 30
0.0
 11
42.64782562947398
 21
1041.083178527017
 31
0.0
  0
ARC
  5
AC17
330
1F
100
AcDbEntity
  8
0
 62
     0
100
AcDbCircle
 10
44.12551637008905
 20
1041.943973390579
 30
0.0
 40
1.481372269500913
100
AcDbArc
 50
157.2080385520316
 51
202.7919614479682
  0
LINE
  5
AC18
330
1F
100
AcDbEntity
  8
0
 62
     0
100
AcDbLine
 10
43.64216710562163
 20
1040.792603845502
 30
0.0
 11
42.7609018101989
 21
1040.792603845502
 31
0.0
  0
LINE
  5
AC19
330
1F
100
AcDbEntity
  8
0
 62
     0
100
AcDbLine
 10
42.75981333505646
 20
1041.370110148204
 30
0.0
 11
43.510781656682
 21
1041.370110148204
 31
0.0
  0
ARC
  5
AC1A
330
1F
100
AcDbEntity
  8
0
 62
     0
100
AcDbCircle
 10
43.07140338269905
 20
1041.083178527017
 30
0.0
 40
0.4235777532250373
100
AcDbArc
 50
137.359188147409
 51
222.6408118525909
  0
LINE
  5
AC1B
330
1F
100
AcDbEntity
  8
0
 62
     0
100
AcDbLine
 10
43.67086002317773
 20
1041.942092626788
 30
0.0
 11
43.67086002317773
 21
1041.655161005601
 31
0.0
  0
LINE
  5
AC1C
330
1F
100
AcDbEntity
  8
0
 62
     0
100
AcDbLine
 10
43.64216710562163
 20
1040.792603845502
 30
0.0
 11
43.67086002317773
 21
1040.821178540366
 31
0.0
  0
LINE
  5
AC1D
330
1F
100
AcDbEntity
  8
0
 62
     0
100
AcDbLine
 10
43.510781656682
 20
1041.370110148204
 30
0.0
 11
43.67086002317773
 21
1041.370110148204
 31
0.0
  0
LINE
  5
AC1E
330
1F
100
AcDbEntity
  8
0
 62
     0
100
AcDbLine
 10
43.67086002317773
 20
1041.942092626788
 30
0.0
 11
43.67086002317773
 21
1041.368229384413
 31
0.0
  0
LINE
  5
AC1F
330
1F
100
AcDbEntity
  8
0
 62
     0
100
AcDbLine
 10
42.75981333505646
 20
1043.091699875329
 30
0.0
 11
43.510781656682
 21
1043.091699875329
 31
0.0
  0
LINE
  5
AC20
330
1F
100
AcDbEntity
  8
0
 62
     0
100
AcDbLine
 10
42.75981333505646
 20
1043.091699875329
 30
0.0
 11
43.642166861059
 21
1043.091699875329
 31
0.0
  0
LINE
  5
AC21
330
1F
100
AcDbEntity
  8
0
 62
     0
100
AcDbLine
 10
42.75981333505646
 20
1042.517836632954
 30
0.0
 11
43.510781656682
 21
1042.517836632954
 31
0.0
  0
ARC
  5
AC22
330
1F
100
AcDbEntity
  8
0
 62
     0
100
AcDbCircle
 10
43.05926961448995
 20
1042.804768254142
 30
0.0
 40
0.4147334306870116
100
AcDbArc
 50
136.2235944163304
 51
223.7764055836695
  0
LINE
  5
AC23
330
1F
100
AcDbEntity
  8
0
 62
     0
100
AcDbLine
 10
43.642166861059
 20
1043.091699875329
 30
0.0
 11
43.67086002317773
 21
1043.063006713211
 31
0.0
  0
LINE
  5
AC24
330
1F
100
AcDbEntity
  8
0
 62
     0
100
AcDbLine
 10
43.510781656682
 20
1042.517836632954
 30
0.0
 11
43.67086002317773
 21
1042.517836632954
 31
0.0
  0
LINE
  5
AC25
330
1F
100
AcDbEntity
  8
0
 62
     0
 48
0.5
100
AcDbLine
 10
45.27086002317775
 20
1041.942092626788
 30
0.0
 11
45.27086002317775
 21
1043.542092626788
 31
0.0
  0
LINE
  5
AC26
330
1F
100
AcDbEntity
  8
0
 62
     0
 48
0.5
100
AcDbLine
 10
45.27086002317775
 20
1043.842092626788
 30
0.0
 11
45.27086002317775
 21
1040.042092626788
 31
0.0
  0
LINE
  5
AC27
330
1F
100
AcDbEntity
  8
0
 62
     0
 48
0.5
100
AcDbLine
 10
62.27086002317776
 20
1042.542092626788
 30
0.0
 11
58.27086002317776
 21
1042.542092626788
 31
0.0
  0
LINE
  5
AC28
330
1F
100
AcDbEntity
  8
0
 62
     0
 48
0.5
100
AcDbLine
 10
62.27086002317776
 20
1041.342092626788
 30
0.0
 11
58.27086002317776
 21
1041.342092626788
 31
0.0
  0
LINE
  5
AC29
330
1F
100
AcDbEntity
  8
0
 62
     0
 48
0.5
100
AcDbLine
 10
58.27086002317776
 20
1043.542092626788
 30
0.0
 11
58.27086002317776
 21
1040.342092626788
 31
0.0
  0
LINE
  5
AC2A
330
1F
100
AcDbEntity
  8
0
 62
     0
 48
0.5
100
AcDbLine
 10
193.6708600231777
 20
1040.342092626788
 30
0.0
 11
180.7708600231777
 21
1040.342092626788
 31
0.0
  0
LINE
  5
AC2B
330
1F
100
AcDbEntity
  8
0
 62
     0
 48
0.5
100
AcDbLine
 10
180.7708600231777
 20
1043.542092626789
 30
0.0
 11
193.6708600231777
 21
1043.542092626788
 31
0.0
  0
LINE
  5
AC2C
330
1F
100
AcDbEntity
  8
0
 62
     0
 48
0.5
100
AcDbLine
 10
176.6708600231777
 20
1042.542092626788
 30
0.0
 11
180.6708600231777
 21
1042.542092626788
 31
0.0
  0
LINE
  5
AC2D
330
1F
100
AcDbEntity
  8
0
 62
     0
 48
0.5
100
AcDbLine
 10
176.6708600231777
 20
1041.342092626788
 30
0.0
 11
180.6708600231777
 21
1041.342092626788
 31
0.0
  0
LINE
  5
AC2E
330
1F
100
AcDbEntity
  8
0
 62
     0
 48
0.5
100
AcDbLine
 10
180.6708600231777
 20
1043.442092626789
 30
0.0
 11
180.6708600231777
 21
1040.442092626788
 31
0.0
  0
LINE
  5
AC2F
330
1F
100
AcDbEntity
  8
0
 62
     0
 48
0.5
100
AcDbLine
 10
180.6708600231777
 20
1040.442092626788
 30
0.0
 11
180.7708600231777
 21
1040.342092626788
 31
0.0
  0
LINE
  5
AC30
330
1F
100
AcDbEntity
  8
0
 62
     0
 48
0.5
100
AcDbLine
 10
180.7708600231777
 20
1043.542092626789
 30
0.0
 11
180.6708600231777
 21
1043.442092626789
 31
0.0
  0
LINE
  5
AC31
330
1F
100
AcDbEntity
  8
0
 62
     0
 48
0.5
100
AcDbLine
 10
208.1708600231777
 20
1040.342092626788
 30
0.0
 11
195.2708600231777
 21
1040.342092626788
 31
0.0
  0
LINE
  5
AC32
330
1F
100
AcDbEntity
  8
0
 62
     0
 48
0.5
100
AcDbLine
 10
195.2708600231777
 20
1043.542092626788
 30
0.0
 11
208.1708600231777
 21
1043.542092626788
 31
0.0
  0
LINE
  5
AC33
330
1F
100
AcDbEntity
  8
0
 62
     0
 48
0.5
100
AcDbLine
 10
195.2708600231777
 20
1040.342092626788
 30
0.0
 11
195.2708600231777
 21
1043.542092626788
 31
0.0
  0
LINE
  5
AC34
330
1F
100
AcDbEntity
  8
0
 62
     0
 48
0.5
100
AcDbLine
 10
195.2708600231777
 20
1039.742092626788
 30
0.0
 11
195.2708600231777
 21
1043.542092626788
 31
0.0
  0
LINE
  5
AC35
330
1F
100
AcDbEntity
  8
0
 62
     0
 48
0.5
100
AcDbLine
 10
193.6708600231777
 20
1044.142092626788
 30
0.0
 11
193.6708600231777
 21
1040.342092626788
 31
0.0
  0
LINE
  5
AC36
330
1F
100
AcDbEntity
  8
0
 62
     0
 48
0.5
100
AcDbLine
 10
193.6708600231777
 20
1043.542092626788
 30
0.0
 11
193.6708600231777
 21
1040.342092626788
 31
0.0
  0
LINE
  5
AC37
330
1F
100
AcDbEntity
  8
0
 62
     0
 48
0.5
100
AcDbLine
 10
212.2708600231777
 20
1042.542092626788
 30
0.0
 11
208.2708600231777
 21
1042.542092626788
 31
0.0
  0
LINE
  5
AC38
330
1F
100
AcDbEntity
  8
0
 62
     0
 48
0.5
100
AcDbLine
 10
212.2708600231777
 20
1041.342092626788
 30
0.0
 11
208.2708600231777
 21
1041.342092626788
 31
0.0
  0
LINE
  5
AC39
330
1F
100
AcDbEntity
  8
0
 62
     0
 48
0.5
100
AcDbLine
 10
208.1708600231777
 20
1040.342092626788
 30
0.0
 11
208.2708600231777
 21
1040.442092626788
 31
0.0
  0
LINE
  5
AC3A
330
1F
100
AcDbEntity
  8
0
 62
     0
 48
0.5
100
AcDbLine
 10
208.2708600231777
 20
1043.442092626788
 30
0.0
 11
208.1708600231777
 21
1043.542092626788
 31
0.0
  0
LINE
  5
AC3B
330
1F
100
AcDbEntity
  8
0
 62
     0
 48
0.5
100
AcDbLine
 10
208.2708600231777
 20
1040.442092626788
 30
0.0
 11
208.2708600231777
 21
1043.442092626788
 31
0.0
  0
LINE
  5
AC3C
330
1F
100
AcDbEntity
  8
0
 62
     0
 48
0.5
100
AcDbLine
 10
345.2708600231777
 20
1041.342092626786
 30
0.0
 11
480.6708600231776
 21
1041.342092626783
 31
0.0
  0
LINE
  5
AC3D
330
1F
100
AcDbEntity
  8
0
 62
     0
 48
0.5
100
AcDbLine
 10
345.2708600231777
 20
1042.542092626785
 30
0.0
 11
480.6708600231776
 21
1042.542092626783
 31
0.0
  0
LINE
  5
AC3E
330
1F
100
AcDbEntity
  8
0
 62
     0
 48
0.5
100
AcDbLine
 10
480.7708600231776
 20
1043.542092626789
 30
0.0
 11
493.6708600231776
 21
1043.542092626788
 31
0.0
  0
LINE
  5
AC3F
330
1F
100
AcDbEntity
  8
0
 62
     0
 48
0.5
100
AcDbLine
 10
493.6708600231776
 20
1040.342092626788
 30
0.0
 11
480.7708600231776
 21
1040.342092626788
 31
0.0
  0
LINE
  5
AC40
330
1F
100
AcDbEntity
  8
0
 62
     0
 48
0.5
100
AcDbLine
 10
480.7708600231776
 20
1043.542092626789
 30
0.0
 11
480.6708600231776
 21
1043.442092626789
 31
0.0
  0
LINE
  5
AC41
330
1F
100
AcDbEntity
  8
0
 62
     0
 48
0.5
100
AcDbLine
 10
480.6708600231776
 20
1040.442092626788
 30
0.0
 11
480.7708600231776
 21
1040.342092626788
 31
0.0
  0
LINE
  5
AC42
330
1F
100
AcDbEntity
  8
0
 62
     0
 48
0.5
100
AcDbLine
 10
480.6708600231776
 20
1043.442092626789
 30
0.0
 11
480.6708600231776
 21
1040.442092626788
 31
0.0
  0
LINE
  5
AC43
330
1F
100
AcDbEntity
  8
0
 62
     0
 48
0.5
100
AcDbLine
 10
493.6708600231776
 20
1043.542092626788
 30
0.0
 11
493.6708600231776
 21
1040.342092626788
 31
0.0
  0
LINE
  5
AC44
330
1F
100
AcDbEntity
  8
0
 62
     0
 48
0.5
100
AcDbLine
 10
493.6708600231776
 20
1044.142092626788
 30
0.0
 11
493.6708600231776
 21
1040.342092626788
 31
0.0
  0
LINE
  5
AC45
330
1F
100
AcDbEntity
  8
0
 62
     0
100
AcDbLine
 10
495.4309383896734
 20
1041.366348620622
 30
0.0
 11
495.2708600231777
 21
1041.366348620622
 31
0.0
  0
LINE
  5
AC46
330
1F
100
AcDbEntity
  8
0
 62
     0
100
AcDbLine
 10
495.2995531852963
 20
1040.792485378247
 30
0.0
 11
495.2708600231777
 21
1040.821178540366
 31
0.0
  0
ARC
  5
AC47
330
1F
100
AcDbEntity
  8
0
 62
     0
100
AcDbCircle
 10
495.8824504318655
 20
1041.079416999434
 30
0.0
 40
0.4147334306870116
100
AcDbArc
 50
316.2235944163304
 51
43.77640558366958
  0
LINE
  5
AC48
330
1F
100
AcDbEntity
  8
0
 62
     0
100
AcDbLine
 10
496.181906711299
 20
1041.366348620622
 30
0.0
 11
495.4309383896734
 21
1041.366348620622
 31
0.0
  0
LINE
  5
AC49
330
1F
100
AcDbEntity
  8
0
 62
     0
100
AcDbLine
 10
496.181906711299
 20
1040.792485378247
 30
0.0
 11
495.2995531852963
 21
1040.792485378247
 31
0.0
  0
LINE
  5
AC4A
330
1F
100
AcDbEntity
  8
0
 62
     0
100
AcDbLine
 10
496.181906711299
 20
1040.792485378247
 30
0.0
 11
495.4309383896734
 21
1040.792485378247
 31
0.0
  0
LINE
  5
AC4B
330
1F
100
AcDbEntity
  8
0
 62
     0
100
AcDbLine
 10
495.2708600231777
 20
1041.942092626788
 30
0.0
 11
495.2708600231777
 21
1042.515955869163
 31
0.0
  0
LINE
  5
AC4C
330
1F
100
AcDbEntity
  8
0
 62
     0
100
AcDbLine
 10
495.4309383896734
 20
1042.514075105372
 30
0.0
 11
495.2708600231777
 21
1042.514075105372
 31
0.0
  0
LINE
  5
AC4D
330
1F
100
AcDbEntity
  8
0
 62
     0
100
AcDbLine
 10
495.2995529407338
 20
1043.091581408074
 30
0.0
 11
495.2708600231777
 21
1043.063006713211
 31
0.0
  0
LINE
  5
AC4E
330
1F
100
AcDbEntity
  8
0
 62
     0
100
AcDbLine
 10
495.2708600231777
 20
1041.942092626788
 30
0.0
 11
495.2708600231777
 21
1042.229024247975
 31
0.0
  0
ARC
  5
AC4F
330
1F
100
AcDbEntity
  8
0
 62
     0
100
AcDbCircle
 10
495.8703166636563
 20
1042.801006726559
 30
0.0
 40
0.4235777532250373
100
AcDbArc
 50
317.359188147409
 51
42.64081185259096
  0
LINE
  5
AC50
330
1F
100
AcDbEntity
  8
0
 62
     0
100
AcDbLine
 10
496.181906711299
 20
1042.514075105372
 30
0.0
 11
495.4309383896734
 21
1042.514075105372
 31
0.0
  0
LINE
  5
AC51
330
1F
100
AcDbEntity
  8
0
 62
     0
100
AcDbLine
 10
495.2995529407338
 20
1043.091581408074
 30
0.0
 11
496.1808182361565
 21
1043.091581408074
 31
0.0
  0
ARC
  5
AC52
330
1F
100
AcDbEntity
  8
0
 62
     0
100
AcDbCircle
 10
494.8162036762663
 20
1041.940211862997
 30
0.0
 40
1.481372269500913
100
AcDbArc
 50
337.2080385520316
 51
22.79196144796827
  0
LINE
  5
AC53
330
1F
100
AcDbEntity
  8
0
 62
     0
100
AcDbLine
 10
496.2971838625525
 20
1041.079416999434
 30
0.0
 11
496.2938944168814
 21
1042.801006726559
 31
0.0
  0
LINE
  5
AC54
330
1F
100
AcDbEntity
  8
0
 62
     0
100
AcDbLine
 10
495.2708600231777
 20
1040.821178540366
 30
0.0
 11
495.2708600231777
 21
1043.063006713211
 31
0.0
  0
VIEWPORT
  5
2F
330
1B
100
AcDbEntity
 67
     1
  8
0
100
AcDbViewport
 10
210.8645862540714
 20
149.7815185269692
 30
0.0
 40
479.1862016322689
 41
324.9607266531437
 68
     1
 69
     1
 12
210.8645862540714
 22
149.7815185269692
 13
0.0
 23
0.0
 14
10.0
 24
10.0
 15
10.0
 25
10.0
 16
0.0
 26
0.0
 36
1.0
 17
0.0
 27
0.0
 37
0.0
 42
50.0
 43
0.0
 44
0.0
 45
324.9607266531437
 50
0.0
 51
0.0
 72
   100
 90
    32800
  1

281
     0
 71
     1
 74
     0
110
0.0
120
0.0
130
0.0
111
1.0
121
0.0
131
0.0
112
0.0
122
1.0
132
0.0
 79
     0
146
0.0
  0
LWPOLYLINE
  5
AA
330
1B
100
AcDbEntity
 67
     1
  8
２
 62
     0
100
AcDbPolyline
 90
        4
 70
     1
 43
0.0
 10
1.042221639059562
 20
284.1844718556203
 10
407.757958684845
 20
284.1844718556203
 10
407.757958684845
 20
1.08829855961801
 10
1.042221639059562
 20
1.08829855961801
  0
MTEXT
  5
DC
330
1B
100
AcDbEntity
 67
     1
  8
２
 62
     0
100
AcDbMText
 10
275.257958684845
 20
4.588298559618024
 30
0.0
 40
3.0
 41
55.0
 71
     5
 72
     5
  1
{\fMS UI Gothic|b0|i0|c128|p50;株式会社 アルティマ}
 73
     1
 44
1.0
  0
LINE
  5
DD
330
1B
100
AcDbEntity
 67
     1
  8
２
 62
     0
100
AcDbLine
 10
262.757958684845
 20
8.088298559618039
 30
0.0
 11
302.757958684845
 21
8.088298559618039
 31
0.0
  0
LINE
  5
DE
330
1B
100
AcDbEntity
 67
     1
  8
２
 62
     0
100
AcDbLine
 10
342.7579586848451
 20
23.08829855961798
 30
0.0
 11
247.757958684845
 21
23.08829855961792
 31
0.0
  0
LINE
  5
DF
330
1B
100
AcDbEntity
 67
     1
  8
２
 62
     0
100
AcDbLine
 10
247.7579586848449
 20
18.08829855961798
 30
0.0
 11
342.7579586848451
 21
18.08829855961798
 31
0.0
  0
LINE
  5
E0
330
1B
100
AcDbEntity
 67
     1
  8
２
 62
     0
100
AcDbLine
 10
342.7579586848451
 20
13.08829855961801
 30
0.0
 11
247.7579586848451
 21
13.08829855961798
 31
0.0
  0
LINE
  5
E1
330
1B
100
AcDbEntity
 67
     1
  8
２
 62
     0
100
AcDbLine
 10
352.757958684845
 20
8.08829855961801
 30
0.0
 11
252.8023834435082
 21
8.088298559618039
 31
0.0
  0
LINE
  5
E2
330
1B
100
AcDbEntity
 67
     1
  8
２
 62
     0
100
AcDbLine
 10
407.7579586848449
 20
28.08829855961801
 30
0.0
 11
247.7579586848449
 21
28.08829855961803
 31
0.0
  0
MTEXT
  5
E3
330
1B
100
AcDbEntity
 67
     1
  8
２
 62
     0
100
AcDbMText
 10
255.2579586848449
 20
25.58829855961798
 30
0.0
 40
2.0
 41
15.0
 71
     5
 72
     5
  1
{\fMS UI Gothic|b0|i0|c128|p50;パーツ}
 73
     1
 44
1.0
  0
LINE
  5
E4
330
1B
100
AcDbEntity
 67
     1
  8
２
 62
     0
100
AcDbLine
 10
247.7579586848449
 20
8.088298559618039
 30
0.0
 11
262.757958684845
 21
8.088298559618039
 31
0.0
  0
LINE
  5
E5
330
1B
100
AcDbEntity
 67
     1
  8
２
 62
     0
100
AcDbLine
 10
247.7579586848451
 20
13.08829855961798
 30
0.0
 11
247.7579586848449
 21
18.08829855961798
 31
0.0
  0
LINE
  5
E6
330
1B
100
AcDbEntity
 67
     1
  8
２
 62
     0
100
AcDbLine
 10
247.7579586848449
 20
28.08829855961803
 30
0.0
 11
247.7579586848449
 21
9.237389132921862
 31
0.0
  0
LINE
  5
E7
330
1B
100
AcDbEntity
 67
     1
  8
２
 62
     0
100
AcDbLine
 10
247.7579586848449
 20
9.237389132921862
 30
0.0
 11
247.7579586848449
 21
1.088298559618039
 31
0.0
  0
LINE
  5
E8
330
1B
100
AcDbEntity
 67
     1
  8
２
 62
     0
100
AcDbLine
 10
262.757958684845
 20
8.088298559618039
 30
0.0
 11
262.757958684845
 21
28.08829855961803
 31
0.0
  0
LINE
  5
EC
330
1B
100
AcDbEntity
 67
     1
  8
２
 62
     0
100
AcDbLine
 10
407.757958684845
 20
8.08829855961801
 30
0.0
 11
352.757958684845
 21
8.08829855961801
 31
0.0
  0
MTEXT
  5
ED
330
1B
100
AcDbEntity
 67
     1
  8
２
 62
     0
 48
0.3
100
AcDbMText
 10
317.7579586848451
 20
4.370495529314986
 30
0.0
 40
2.0
 41
20.0
 71
     5
 72
     5
  1
E.Nomura
 73
     1
 44
1.0
  0
MTEXT
  5
EE
330
1B
100
AcDbEntity
 67
     1
  8
２
 62
     0
100
AcDbMText
 10
322.7579586848449
 20
25.588298559618
 30
0.0
 40
2.0
 41
40.0
 71
     5
 72
     5
  1
{\fMS UI Gothic|b0|i0|c128|p50;処　　　理}
 73
     1
 44
1.0
  0
LINE
  5
EF
330
1B
100
AcDbEntity
 67
     1
  8
２
 62
     0
100
AcDbLine
 10
327.757958684845
 20
1.08829855961801
 30
0.0
 11
307.7579586848451
 21
1.08829855961801
 31
0.0
  0
MTEXT
  5
F0
330
1B
100
AcDbEntity
 67
     1
  8
２
 62
     0
100
AcDbMText
 10
282.7579586848449
 20
25.58829855961799
 30
0.0
 40
2.0
 41
40.0
 71
     5
 72
     5
  1
{\fMS UI Gothic|b0|i0|c128|p50;材　　　質}
 73
     1
 44
1.0
  0
LINE
  5
F1
330
1B
100
AcDbEntity
 67
     1
  8
２
 62
     0
100
AcDbLine
 10
302.757958684845
 20
8.088298559618039
 30
0.0
 11
302.757958684845
 21
28.08829855961803
 31
0.0
  0
MTEXT
  5
F2
330
1B
100
AcDbEntity
 67
     1
  8
２
 62
     0
100
AcDbMText
 10
305.2690710641766
 20
4.588298559618021
 30
0.0
 40
2.0
 41
4.9778
 71
     5
 72
     5
  1
{\fMS UI Gothic|b0|i0|c128|p50;製\P図}
 73
     1
 44
1.0
  0
LINE
  5
F3
330
1B
100
AcDbEntity
 67
     1
  8
２
 62
     0
100
AcDbLine
 10
302.757958684845
 20
8.088298559618039
 30
0.0
 11
302.757958684845
 21
1.08829855961801
 31
0.0
  0
LINE
  5
F4
330
1B
100
AcDbEntity
 67
     1
  8
２
 62
     0
100
AcDbLine
 10
307.7579586848451
 20
1.08829855961801
 30
0.0
 11
307.7579586848451
 21
8.08829855961801
 31
0.0
  0
LINE
  5
F5
330
1B
100
AcDbEntity
 67
     1
  8
２
 62
     0
100
AcDbLine
 10
307.7579586848451
 20
8.08829855961801
 30
0.0
 11
302.757958684845
 21
8.088298559618039
 31
0.0
  0
MTEXT
  5
F6
330
1B
100
AcDbEntity
 67
     1
  8
２
 62
     0
100
AcDbMText
 10
347.7579586848451
 20
18.08829855961802
 30
0.0
 40
2.5
 41
10.0
 71
     5
 72
     5
  1
{\fMS UI Gothic|b0|i0|c128|p50;品\P\P名}
 73
     1
 44
1.0
  0
MTEXT
  5
F7
330
1B
100
AcDbEntity
 67
     1
  8
２
 62
     0
100
AcDbMText
 10
347.7579586848451
 20
4.588298559618021
 30
0.0
 40
2.0
 41
10.0
 71
     5
 72
     5
  1
{\fMS UI Gothic|b0|i0|c128|p50;品番}
 73
     1
 44
1.0
  0
LINE
  5
F8
330
1B
100
AcDbEntity
 67
     1
  8
２
 62
     0
100
AcDbLine
 10
342.7579586848451
 20
28.08829855961801
 30
0.0
 11
352.757958684845
 21
28.08829855961801
 31
0.0
  0
LINE
  5
F9
330
1B
100
AcDbEntity
 67
     1
  8
２
 62
     0
100
AcDbLine
 10
352.757958684845
 20
1.08829855961801
 30
0.0
 11
342.7579586848451
 21
1.08829855961801
 31
0.0
  0
LINE
  5
FA
330
1B
100
AcDbEntity
 67
     1
  8
２
 62
     0
100
AcDbLine
 10
342.7579586848451
 20
1.08829855961801
 30
0.0
 11
342.7579586848451
 21
28.08829855961801
 31
0.0
  0
LINE
  5
FB
330
1B
100
AcDbEntity
 67
     1
  8
２
 62
     0
100
AcDbLine
 10
342.7579586848451
 20
1.08829855961801
 30
0.0
 11
332.7579586848451
 21
1.08829855961801
 31
0.0
  0
MTEXT
  5
FC
330
1B
100
AcDbEntity
 67
     1
  8
２
 62
     0
100
AcDbMText
 10
330.2579586848451
 20
4.588298559618017
 30
0.0
 40
2.0
 41
5.0
 71
     5
 72
     5
  1
{\fMS UI Gothic|b0|i0|c128|p50;縮\P尺}
 73
     1
 44
1.0
  0
LINE
  5
FD
330
1B
100
AcDbEntity
 67
     1
  8
２
 62
     0
100
AcDbLine
 10
327.757958684845
 20
8.08829855961801
 30
0.0
 11
327.757958684845
 21
1.08829855961801
 31
0.0
  0
LINE
  5
FE
330
1B
100
AcDbEntity
 67
     1
  8
２
 62
     0
100
AcDbLine
 10
332.7579586848451
 20
1.08829855961801
 30
0.0
 11
332.7579586848451
 21
8.08829855961801
 31
0.0
  0
LINE
  5
FF
330
1B
100
AcDbEntity
 67
     1
  8
２
 62
     0
100
AcDbLine
 10
332.7579586848451
 20
8.08829855961801
 30
0.0
 11
327.757958684845
 21
8.08829855961801
 31
0.0
  0
LINE
  5
100
330
1B
100
AcDbEntity
 67
     1
  8
２
 62
     0
100
AcDbLine
 10
342.7579586848451
 20
8.08829855961801
 30
0.0
 11
342.7579586848451
 21
13.08829855961801
 31
0.0
  0
LINE
  5
101
330
1B
100
AcDbEntity
 67
     1
  8
２
 62
     0
100
AcDbLine
 10
342.7579586848451
 20
18.08829855961798
 30
0.0
 11
342.7579586848451
 21
23.08829855961798
 31
0.0
  0
LINE
  5
102
330
1B
100
AcDbEntity
 67
     1
  8
２
 62
     0
100
AcDbLine
 10
352.757958684845
 20
28.08829855961801
 30
0.0
 11
352.757958684845
 21
8.08829855961801
 31
0.0
  0
LINE
  5
103
330
1B
100
AcDbEntity
 67
     1
  8
２
 62
     0
100
AcDbLine
 10
352.757958684845
 20
8.08829855961801
 30
0.0
 11
352.757958684845
 21
1.08829855961801
 31
0.0
  0
LINE
  5
104
330
1B
100
AcDbEntity
 67
     1
  8
２
 62
     0
100
AcDbLine
 10
407.757958684845
 20
1.08829855961801
 30
0.0
 11
407.7579586848449
 21
28.08829855961801
 31
0.0
  0
LINE
  5
105
330
1B
100
AcDbEntity
 67
     1
  8
２
 62
     0
100
AcDbLine
 10
407.757958684845
 20
1.08829855961801
 30
0.0
 11
407.757958684845
 21
8.08829855961801
 31
0.0
  0
LINE
  5
10E
330
1B
100
AcDbEntity
 67
     1
  8
２
 62
     0
 48
0.3
100
AcDbLine
 10
348.1319795129643
 20
277.1869416790318
 30
0.0
 11
407.82803226079
 21
277.1869416790318
 31
0.0
  0
LINE
  5
10F
330
1B
100
AcDbEntity
 67
     1
  8
２
 62
     0
 48
0.3
100
AcDbLine
 10
348.1319795129643
 20
277.1869416790318
 30
0.0
 11
348.1319795129643
 21
284.1844718556203
 31
0.0
  0
LINE
  5
111
330
1B
100
AcDbEntity
 67
     1
  8
２
 62
     0
 48
0.3
100
AcDbLine
 10
358.9855818391189
 20
284.1844718556203
 30
0.0
 11
358.9855818391189
 21
277.1869416790318
 31
0.0
  0
MTEXT
  5
112
330
1B
100
AcDbEntity
 67
     1
  8
２
 62
     0
100
AcDbMText
 10
255.2579586848451
 20
10.58829855961801
 30
0.0
 40
2.5
 41
15.0
 71
     5
 72
     5
  1
{\fMS UI Gothic|b0|i0|c128|p17;１}
 73
     1
 44
1.0
  0
MTEXT
  5
113
330
1B
100
AcDbEntity
 67
     1
  8
２
 62
     0
100
AcDbMText
 10
255.2579586848449
 20
15.58829855961798
 30
0.0
 40
2.5
 41
15.0
 71
     5
 72
     5
  1
{\fMS UI Gothic|b0|i0|c128|p17;２}
 73
     1
 44
1.0
  0
MTEXT
  5
114
330
1B
100
AcDbEntity
 67
     1
  8
２
 62
     0
100
AcDbMText
 10
255.257958684845
 20
20.58829855961795
 30
0.0
 40
2.5
 41
15.0
 71
     5
 72
     5
  1
{\fMS UI Gothic|b0|i0|c128|p17;３}
 73
     1
 44
1.0
  0
MTEXT
  5
115
330
1B
100
AcDbEntity
 67
     1
  8
２
 62
     0
100
AcDbMText
 10
353.5587795129643
 20
280.6857067673261
 30
0.0
 40
2.5
 41
10.8536
 71
     5
 72
     5
  1
{\fMS UI Gothic|b0|i0|c128|p17;日付}
 73
     1
 44
1.0
  0
MTEXT
  5
1DD
330
1B
100
AcDbEntity
 67
     1
  8
１
100
AcDbMText
 10
187.6389970102438
 20
148.8327383458293
 30
0.0
 40
2.5
 41
0.0
 71
     9
 72
     1
  1

  7
ｽﾀｲﾙ1
 73
     1
 44
1.0
  0
MTEXT
  5
1DF
330
1B
100
AcDbEntity
 67
     1
  8
１
100
AcDbMText
 10
125.9251163363451
 20
100.1557259194321
 30
0.0
 40
2.5
 41
0.0
 71
     9
 72
     1
  1

  7
ｽﾀｲﾙ1
 73
     1
 44
1.0
  0
MTEXT
  5
1F5
330
1B
100
AcDbEntity
 67
     1
  8
１
100
AcDbMText
 10
95.93852678293661
 20
241.1781167614512
 30
0.0
 40
2.5
 41
0.0
 71
     1
 72
     1
  1

  7
ｽﾀｲﾙ1
 73
     1
 44
1.0
  0
MTEXT
  5
1F7
330
1B
100
AcDbEntity
 67
     1
  8
１
100
AcDbMText
 10
103.8845037960281
 20
221.796204377297
 30
0.0
 40
2.5
 41
0.0
 71
     1
 72
     1
  1

  7
ｽﾀｲﾙ1
 73
     1
 44
1.0
  0
ENDSEC
  0
SECTION
  2
OBJECTS
  0
DICTIONARY
  5
C
330
0
100
AcDbDictionary
281
     1
  3
ACAD_GROUP
350
D
  3
ACAD_IMAGE_VARS
350
2B
  3
ACAD_LAYOUT
350
1A
  3
ACAD_MLINESTYLE
350
17
  3
ACAD_PLOTSETTINGS
350
19
  3
ACAD_PLOTSTYLENAME
350
E
  3
AcadDim
350
9468
  3
AcDbVariableDictionary
350
65AD
  3
DWGPROPS
350
7E1
  0
DICTIONARY
  5
D
102
{ACAD_REACTORS
330
C
102
}
330
C
100
AcDbDictionary
281
     1
  0
RASTERVARIABLES
  5
2B
102
{ACAD_REACTORS
330
C
102
}
330
C
100
AcDbRasterVariables
 90
        0
 70
     1
 71
     1
 72
     1
  0
DICTIONARY
  5
1A
102
{ACAD_REACTORS
330
C
102
}
330
C
100
AcDbDictionary
281
     1
  3
Model
350
22
  3
ﾚｲｱｳﾄ1
350
1E
  3
ﾚｲｱｳﾄ2
350
26
  0
DICTIONARY
  5
17
102
{ACAD_REACTORS
330
C
102
}
330
C
100
AcDbDictionary
281
     1
  3
Standard
350
18
  0
DICTIONARY
  5
19
102
{ACAD_REACTORS
330
C
102
}
330
C
100
AcDbDictionary
281
     1
  0
ACDBDICTIONARYWDFLT
  5
E
102
{ACAD_REACTORS
330
C
102
}
330
C
100
AcDbDictionary
281
     1
  3
Normal
350
F
100
AcDbDictionaryWithDefault
340
F
  0
XRECORD
  5
9468
102
{ACAD_REACTORS
330
C
102
}
330
C
100
AcDbXrecord
280
     1
 90
   990106
  3

 60
     0
 61
     0
 62
     1
 63
     3
 64
     0
 65
     0
 66
     0
 67
     3
 68
     1
 69
     0
 70
     0
 71
     0
 72
     0
 40
20.43801309868158
170
     0
340
A8DD
  0
DICTIONARY
  5
65AD
102
{ACAD_REACTORS
330
C
102
}
330
C
100
AcDbDictionary
281
     1
  3
SORTENTS
350
65AE
  0
XRECORD
  5
7E1
102
{ACAD_REACTORS
330
C
102
}
330
C
100
AcDbXrecord
280
     1
  1
DWGPROPS COOKIE
  2

  3

  4

  6

  7

  8

  9

300
=
301
=
302
=
303
=
304
=
305
=
306
=
307
=
308
=
309
=
 40
0.1525764814814815
 41
2454873.622250069
 42
2455268.41966037
  1

 90
        0
  0
LAYOUT
  5
22
102
{ACAD_REACTORS
330
1A
102
}
330
1A
100
AcDbPlotSettings
  1

  2
RICOH IPSiO G515
  4
A3
  6

 40
5.873749732971191
 41
5.873747825622558
 42
5.873748779296875
 43
5.873748779296875
 44
296.9259948730469
 45
419.9466552734374
 46
0.0
 47
0.0
 48
0.0
 49
0.0
140
0.0
141
0.0
142
1.0
143
1.959971811730723
 70
 11952
 72
     1
 73
     1
 74
     1
  7

 75
     0
147
0.5102114193759578
148
117.6657051803588
149
-817.5266692991444
100
AcDbLayout
  1
Model
 70
     1
 71
     0
 10
0.0
 20
0.0
 11
12.0
 21
9.0
 12
0.0
 22
0.0
 32
0.0
 14
0.0
 24
0.0
 34
0.0
 15
0.0
 25
0.0
 35
0.0
146
0.0
 13
0.0
 23
0.0
 33
0.0
 16
1.0
 26
0.0
 36
0.0
 17
0.0
 27
1.0
 37
0.0
 76
     0
330
1F
  0
LAYOUT
  5
1E
102
{ACAD_REACTORS
330
1A
102
}
330
1A
100
AcDbPlotSettings
  1

  2
RICOH imagio MP C3500 RPCS
  4
A3
  6

 40
5.873749732971191
 41
5.873747825622558
 42
5.873748779296875
 43
5.873748779296875
 44
296.9259948730469
 45
419.9466552734374
 46
0.0
 47
0.0
 48
0.0
 49
0.0
140
0.0
141
0.0
142
1.0
143
1.0
 70
   688
 72
     1
 73
     1
 74
     5
  7

 75
    16
147
1.0
148
0.0
149
0.0
100
AcDbLayout
  1
ﾚｲｱｳﾄ1
 70
     1
 71
     1
 10
-5.873748779296875
 20
-5.873749732971191
 11
414.0729064941406
 21
291.0522451400757
 12
0.0
 22
0.0
 32
0.0
 14
1.042221639059562
 24
1.08829855961801
 34
0.0
 15
407.82803226079
 25
284.1844718556203
 35
0.0
146
0.0
 13
0.0
 23
0.0
 33
0.0
 16
1.0
 26
0.0
 36
0.0
 17
0.0
 27
1.0
 37
0.0
 76
     0
330
1B
331
2F
  0
LAYOUT
  5
26
102
{ACAD_REACTORS
330
1A
102
}
330
1A
100
AcDbPlotSettings
  1

  2
RICOH imagio Neo C380 RPCS
  4

  6

 40
0.0
 41
0.0
 42
0.0
 43
0.0
 44
0.0
 45
0.0
 46
0.0
 47
0.0
 48
0.0
 49
0.0
140
0.0
141
0.0
142
1.0
143
1.0
 70
   688
 72
     0
 73
     1
 74
     5
  7

 75
    16
147
1.0
148
0.0
149
0.0
100
AcDbLayout
  1
ﾚｲｱｳﾄ2
 70
     1
 71
     2
 10
0.0
 20
0.0
 11
0.0
 21
0.0
 12
0.0
 22
0.0
 32
0.0
 14
0.0
 24
0.0
 34
0.0
 15
0.0
 25
0.0
 35
0.0
146
0.0
 13
0.0
 23
0.0
 33
0.0
 16
1.0
 26
0.0
 36
0.0
 17
0.0
 27
1.0
 37
0.0
 76
     0
330
23
331
922
  0
MLINESTYLE
  5
18
102
{ACAD_REACTORS
330
17
102
}
330
17
100
AcDbMlineStyle
  2
STANDARD
 70
     0
  3

 62
   256
 51
90.0
 52
90.0
 71
     2
 49
0.5
 62
   256
  6
BYLAYER
 49
-0.5
 62
   256
  6
BYLAYER
  0
ACDBPLACEHOLDER
  5
F
102
{ACAD_REACTORS
330
E
102
}
330
E
  0
DICTIONARYVAR
  5
65AE
102
{ACAD_REACTORS
330
65AD
102
}
330
65AD
100
DictionaryVariables
280
     0
  1
96
  0
ENDSEC
  0
EOF
