  0
SECTION
  2
HEADER
  9
$ACADVER
  1
AC1015
  9
$ACADMAINTVER
 70
     6
  9
$DWGCODEPAGE
  3
ANSI_932
  9
$INSBASE
 10
0.0
 20
0.0
 30
0.0
  9
$EXTMIN
 10
-117.6069841392893
 20
817.5308658634675
 30
0.0
  9
$EXTMAX
 10
682.3930158607106
 20
1367.530865863467
 30
0.0
  9
$LIMMIN
 10
0.0
 20
0.0
  9
$LIMMAX
 10
420.0
 20
297.0
  9
$ORTHOMODE
 70
     0
  9
$REGENMODE
 70
     1
  9
$FILLMODE
 70
     1
  9
$QTEXTMODE
 70
     0
  9
$MIRRTEXT
 70
     1
  9
$LTSCALE
 40
1.0
  9
$ATTMODE
 70
     1
  9
$TEXTSIZE
 40
2.5
  9
$TRACEWID
 40
1.0
  9
$TEXTSTYLE
  7
Standard
  9
$CLAYER
  8
0
  9
$CELTYPE
  6
ByLayer
  9
$CECOLOR
 62
     0
  9
$CELTSCALE
 40
0.5
  9
$DISPSILH
 70
     0
  9
$DIMSCALE
 40
1.0
  9
$DIMASZ
 40
5.0
  9
$DIMEXO
 40
2.0
  9
$DIMDLI
 40
3.75
  9
$DIMRND
 40
0.0
  9
$DIMDLE
 40
0.0
  9
$DIMEXE
 40
5.0
  9
$DIMTP
 40
0.0
  9
$DIMTM
 40
0.0
  9
$DIMTXT
 40
6.0
  9
$DIMCEN
 40
2.5
  9
$DIMTSZ
 40
0.0
  9
$DIMTOL
 70
     0
  9
$DIMLIM
 70
     0
  9
$DIMTIH
 70
     0
  9
$DIMTOH
 70
     0
  9
$DIMSE1
 70
     0
  9
$DIMSE2
 70
     0
  9
$DIMTAD
 70
     1
  9
$DIMZIN
 70
     8
  9
$DIMBLK
  1

  9
$DIMASO
 70
     1
  9
$DIMSHO
 70
     1
  9
$DIMPOST
  1

  9
$DIMAPOST
  1

  9
$DIMALT
 70
     0
  9
$DIMALTD
 70
     3
  9
$DIMALTF
 40
0.1
  9
$DIMLFAC
 40
1.0
  9
$DIMTOFL
 70
     1
  9
$DIMTVP
 40
0.0
  9
$DIMTIX
 70
     0
  9
$DIMSOXD
 70
     0
  9
$DIMSAH
 70
     0
  9
$DIMBLK1
  1

  9
$DIMBLK2
  1

  9
$DIMSTYLE
  2
ISO-25
  9
$DIMCLRD
 70
     7
  9
$DIMCLRE
 70
     7
  9
$DIMCLRT
 70
     0
  9
$DIMTFAC
 40
1.0
  9
$DIMGAP
 40
3.0
  9
$DIMJUST
 70
     0
  9
$DIMSD1
 70
     0
  9
$DIMSD2
 70
     0
  9
$DIMTOLJ
 70
     0
  9
$DIMTZIN
 70
     8
  9
$DIMALTZ
 70
     0
  9
$DIMALTTZ
 70
     0
  9
$DIMUPT
 70
     0
  9
$DIMDEC
 70
     2
  9
$DIMTDEC
 70
     2
  9
$DIMALTU
 70
     2
  9
$DIMALTTD
 70
     3
  9
$DIMTXSTY
  7
Standard
  9
$DIMAUNIT
 70
     0
  9
$DIMADEC
 70
     0
  9
$DIMALTRND
 40
0.0
  9
$DIMAZIN
 70
     0
  9
$DIMDSEP
 70
    46
  9
$DIMATFIT
 70
     3
  9
$DIMFRAC
 70
     0
  9
$DIMLDRBLK
  1

  9
$DIMLUNIT
 70
     2
  9
$DIMLWD
 70
     9
  9
$DIMLWE
 70
     9
  9
$DIMTMOVE
 70
     0
  9
$LUNITS
 70
     2
  9
$LUPREC
 70
     4
  9
$SKETCHINC
 40
1.0
  9
$FILLETRAD
 40
2.0
  9
$AUNITS
 70
     0
  9
$AUPREC
 70
     0
  9
$MENU
  1
.
  9
$ELEVATION
 40
0.0
  9
$PELEVATION
 40
0.0
  9
$THICKNESS
 40
0.0
  9
$LIMCHECK
 70
     0
  9
$CHAMFERA
 40
0.3
  9
$CHAMFERB
 40
0.3
  9
$CHAMFERC
 40
20.0
  9
$CHAMFERD
 40
0.0
  9
$SKPOLY
 70
     0
  9
$TDCREATE
 40
2454873.622250069
  9
$TDUCREATE
 40
2454873.247250069
  9
$TDUPDATE
 40
2459635.593471238
  9
$TDUUPDATE
 40
2459635.218471238
  9
$TDINDWG
 40
0.8624717014
  9
$TDUSRTIMER
 40
0.8624717014
  9
$USRTIMER
 70
     1
  9
$ANGBASE
 50
0.0
  9
$ANGDIR
 70
     0
  9
$PDMODE
 70
     0
  9
$PDSIZE
 40
0.0
  9
$PLINEWID
 40
0.0
  9
$SPLFRAME
 70
     0
  9
$SPLINETYPE
 70
     6
  9
$SPLINESEGS
 70
     8
  9
$HANDSEED
  5
B8C1
  9
$SURFTAB1
 70
     6
  9
$SURFTAB2
 70
     6
  9
$SURFTYPE
 70
     6
  9
$SURFU
 70
     6
  9
$SURFV
 70
     6
  9
$UCSBASE
  2

  9
$UCSNAME
  2

  9
$UCSORG
 10
0.0
 20
0.0
 30
0.0
  9
$UCSXDIR
 10
1.0
 20
0.0
 30
0.0
  9
$UCSYDIR
 10
0.0
 20
1.0
 30
0.0
  9
$UCSORTHOREF
  2

  9
$UCSORTHOVIEW
 70
     0
  9
$UCSORGTOP
 10
0.0
 20
0.0
 30
0.0
  9
$UCSORGBOTTOM
 10
0.0
 20
0.0
 30
0.0
  9
$UCSORGLEFT
 10
0.0
 20
0.0
 30
0.0
  9
$UCSORGRIGHT
 10
0.0
 20
0.0
 30
0.0
  9
$UCSORGFRONT
 10
0.0
 20
0.0
 30
0.0
  9
$UCSORGBACK
 10
0.0
 20
0.0
 30
0.0
  9
$PUCSBASE
  2

  9
$PUCSNAME
  2

  9
$PUCSORG
 10
0.0
 20
0.0
 30
0.0
  9
$PUCSXDIR
 10
1.0
 20
0.0
 30
0.0
  9
$PUCSYDIR
 10
0.0
 20
1.0
 30
0.0
  9
$PUCSORTHOREF
  2

  9
$PUCSORTHOVIEW
 70
     0
  9
$PUCSORGTOP
 10
0.0
 20
0.0
 30
0.0
  9
$PUCSORGBOTTOM
 10
0.0
 20
0.0
 30
0.0
  9
$PUCSORGLEFT
 10
0.0
 20
0.0
 30
0.0
  9
$PUCSORGRIGHT
 10
0.0
 20
0.0
 30
0.0
  9
$PUCSORGFRONT
 10
0.0
 20
0.0
 30
0.0
  9
$PUCSORGBACK
 10
0.0
 20
0.0
 30
0.0
  9
$USERI1
 70
     0
  9
$USERI2
 70
     0
  9
$USERI3
 70
     0
  9
$USERI4
 70
     0
  9
$USERI5
 70
     0
  9
$USERR1
 40
0.0
  9
$USERR2
 40
0.0
  9
$USERR3
 40
0.0
  9
$USERR4
 40
0.0
  9
$USERR5
 40
0.0
  9
$WORLDVIEW
 70
     1
  9
$SHADEDGE
 70
     3
  9
$SHADEDIF
 70
    70
  9
$TILEMODE
 70
     1
  9
$MAXACTVP
 70
    64
  9
$PINSBASE
 10
0.0
 20
0.0
 30
0.0
  9
$PLIMCHECK
 70
     0
  9
$PEXTMIN
 10
1.042221639059562
 20
1.08829855961801
 30
0.0
  9
$PEXTMAX
 10
407.82803226079
 20
284.1844718556203
 30
0.0
  9
$PLIMMIN
 10
-5.873748779296875
 20
-5.873749732971191
  9
$PLIMMAX
 10
414.0729064941406
 20
291.0522451400757
  9
$UNITMODE
 70
     0
  9
$VISRETAIN
 70
     1
  9
$PLINEGEN
 70
     0
  9
$PSLTSCALE
 70
     1
  9
$TREEDEPTH
 70
  3020
  9
$CMLSTYLE
  2
Standard
  9
$CMLJUST
 70
     0
  9
$CMLSCALE
 40
20.0
  9
$PROXYGRAPHICS
 70
     1
  9
$MEASUREMENT
 70
     1
  9
$CELWEIGHT
370
    -1
  9
$ENDCAPS
280
     0
  9
$JOINSTYLE
280
     0
  9
$LWDISPLAY
290
     0
  9
$INSUNITS
 70
     4
  9
$HYPERLINKBASE
  1

  9
$STYLESHEET
  1

  9
$XEDIT
290
     1
  9
$CEPSNTYPE
380
     0
  9
$PSTYLEMODE
290
     1
  9
$FINGERPRINTGUID
  2
{951E45A9-2098-449B-99F4-687C375CF490}
  9
$VERSIONGUID
  2
{CA315359-B5BB-4272-B9E3-12B90BEC17CB}
  9
$EXTNAMES
290
     1
  9
$PSVPSCALE
 40
0.0
  9
$OLESTARTUP
290
     0
  0
ENDSEC
  0
SECTION
  2
CLASSES
  0
CLASS
  1
ACDBDICTIONARYWDFLT
  2
AcDbDictionaryWithDefault
  3
AutoCAD 2000
 90
        0
280
     0
281
     0
  0
CLASS
  1
ACDBPLACEHOLDER
  2
AcDbPlaceHolder
  3
AutoCAD 2000
 90
        0
280
     0
281
     0
  0
CLASS
  1
LAYOUT
  2
AcDbLayout
  3
AutoCAD 2000
 90
        0
280
     0
281
     0
  0
CLASS
  1
RASTERVARIABLES
  2
AcDbRasterVariables
  3
ISM
 90
        0
280
     0
281
     0
  0
CLASS
  1
DICTIONARYVAR
  2
AcDbDictionaryVar
  3
AutoCAD 2000
 90
        0
280
     0
281
     0
  0
ENDSEC
  0
SECTION
  2
TABLES
  0
TABLE
  2
VPORT
  5
8
330
0
100
AcDbSymbolTable
 70
     3
  0
VPORT
  5
B8C0
330
8
100
AcDbSymbolTableRecord
100
AcDbViewportTableRecord
  2
*Active
 70
     0
 10
0.0
 20
0.0
 11
1.0
 21
1.0
 12
282.5868994297387
 22
1015.137936145148
 13
0.0
 23
0.0
 14
10.0
 24
10.0
 15
10.0
 25
10.0
 16
0.0
 26
0.0
 36
1.0
 17
0.0
 27
0.0
 37
0.0
 40
969.3076277601269
 41
1.477300613496932
 42
50.0
 43
0.0
 44
0.0
 50
0.0
 51
0.0
 71
     0
 72
   100
 73
     1
 74
     3
 75
     0
 76
     0
 77
     0
 78
     0
281
     0
 65
     1
110
0.0
120
0.0
130
0.0
111
1.0
121
0.0
131
0.0
112
0.0
122
1.0
132
0.0
 79
     0
146
0.0
  0
ENDTAB
  0
TABLE
  2
LTYPE
  5
5
330
0
100
AcDbSymbolTable
 70
     6
  0
LTYPE
  5
14
330
5
100
AcDbSymbolTableRecord
100
AcDbLinetypeTableRecord
  2
ByBlock
 70
     0
  3

 72
    65
 73
     0
 40
0.0
  0
LTYPE
  5
15
330
5
100
AcDbSymbolTableRecord
100
AcDbLinetypeTableRecord
  2
ByLayer
 70
     0
  3

 72
    65
 73
     0
 40
0.0
  0
LTYPE
  5
16
330
5
100
AcDbSymbolTableRecord
100
AcDbLinetypeTableRecord
  2
Continuous
 70
     0
  3
Solid line
 72
    65
 73
     0
 40
0.0
  0
LTYPE
  5
35
330
5
100
AcDbSymbolTableRecord
100
AcDbLinetypeTableRecord
  2
HIDDEN
 70
     0
  3
Hidden __ __ __ __ __ __ __ __ __ __ __ __ __ _
 72
    65
 73
     2
 40
9.524999999999998
 49
6.349999999999999
 74
     0
 49
-3.174999999999999
 74
     0
  0
LTYPE
  5
36
330
5
100
AcDbSymbolTableRecord
100
AcDbLinetypeTableRecord
  2
HIDDEN2
 70
     0
  3
Hidden (.5x) _ _ _ _ _ _ _ _ _ _ _ _ _ _ _ _ _
 72
    65
 73
     2
 40
4.762499999999999
 49
3.174999999999999
 74
     0
 49
-1.587499999999999
 74
     0
  0
LTYPE
  5
37
330
5
100
AcDbSymbolTableRecord
100
AcDbLinetypeTableRecord
  2
CENTER
 70
     0
  3
Center ____ _ ____ _ ____ _ ____ _ ____ _ ____
 72
    65
 73
     4
 40
50.8
 49
31.75
 74
     0
 49
-6.349999999999999
 74
     0
 49
6.349999999999999
 74
     0
 49
-6.349999999999999
 74
     0
  0
LTYPE
  5
38
330
5
100
AcDbSymbolTableRecord
100
AcDbLinetypeTableRecord
  2
PHANTOM2
 70
     0
  3
Phantom (.5x) ___ _ _ ___ _ _ ___ _ _ ___ _ _
 72
    65
 73
     6
 40
31.75
 49
15.875
 74
     0
 49
-3.174999999999999
 74
     0
 49
3.174999999999999
 74
     0
 49
-3.174999999999999
 74
     0
 49
3.174999999999999
 74
     0
 49
-3.174999999999999
 74
     0
  0
LTYPE
  5
B153
330
5
100
AcDbSymbolTableRecord
100
AcDbLinetypeTableRecord
  2
PHANTOM
 70
     0
  3
Phantom ______  __  __  ______  __  __  ______
 72
    65
 73
     6
 40
63.5
 49
31.75
 74
     0
 49
-6.349999999999999
 74
     0
 49
6.349999999999999
 74
     0
 49
-6.349999999999999
 74
     0
 49
6.349999999999999
 74
     0
 49
-6.349999999999999
 74
     0
  0
ENDTAB
  0
TABLE
  2
LAYER
  5
2
330
0
100
AcDbSymbolTable
 70
    16
  0
LAYER
  5
10
330
2
100
AcDbSymbolTableRecord
100
AcDbLayerTableRecord
  2
0
 70
     0
 62
     7
  6
Continuous
370
     9
390
F
  0
LAYER
  5
39
330
2
100
AcDbSymbolTableRecord
100
AcDbLayerTableRecord
  2
１
 70
     0
 62
     2
  6
Continuous
370
     9
390
F
  0
LAYER
  5
3A
330
2
100
AcDbSymbolTableRecord
100
AcDbLayerTableRecord
  2
２
 70
     0
 62
     3
  6
Continuous
370
    20
390
F
  0
LAYER
  5
3B
330
2
100
AcDbSymbolTableRecord
100
AcDbLayerTableRecord
  2
３
 70
     0
 62
     4
  6
HIDDEN
370
    15
390
F
  0
LAYER
  5
3C
330
2
100
AcDbSymbolTableRecord
100
AcDbLayerTableRecord
  2
４
 70
     0
 62
     4
  6
HIDDEN2
370
    15
390
F
  0
LAYER
  5
3D
330
2
100
AcDbSymbolTableRecord
100
AcDbLayerTableRecord
  2
５
 70
     0
 62
     6
  6
CENTER
370
    15
390
F
  0
LAYER
  5
3E
330
2
100
AcDbSymbolTableRecord
100
AcDbLayerTableRecord
  2
６
 70
     0
 62
     5
  6
PHANTOM2
370
    15
390
F
  0
LAYER
  5
46
330
2
100
AcDbSymbolTableRecord
100
AcDbLayerTableRecord
  2
Defpoints
 70
     0
 62
     7
  6
Continuous
290
     0
370
    -3
390
F
  0
LAYER
  5
AB
330
2
100
AcDbSymbolTableRecord
100
AcDbLayerTableRecord
  2
Object
 70
     0
 62
     3
  6
Continuous
370
    20
390
F
  0
LAYER
  5
63B4
330
2
100
AcDbSymbolTableRecord
100
AcDbLayerTableRecord
  2
HIDDEN2
 70
     0
 62
     7
  6
HIDDEN2
370
    15
390
F
  0
LAYER
  5
64C8
330
2
100
AcDbSymbolTableRecord
100
AcDbLayerTableRecord
  2
1
 70
     0
 62
     7
  6
Continuous
370
     9
390
F
  0
LAYER
  5
64C9
330
2
100
AcDbSymbolTableRecord
100
AcDbLayerTableRecord
  2
2
 70
     0
 62
     3
  6
Continuous
370
    20
390
F
  0
LAYER
  5
88C5
330
2
100
AcDbSymbolTableRecord
100
AcDbLayerTableRecord
  2
Defined Points
 70
     0
 62
     2
  6
Continuous
370
    13
390
F
  0
LAYER
  5
9CA0
330
2
100
AcDbSymbolTableRecord
100
AcDbLayerTableRecord
  2
CENTER
 70
     0
 62
     7
  6
CENTER
370
     5
390
F
  0
LAYER
  5
9EEA
330
2
100
AcDbSymbolTableRecord
100
AcDbLayerTableRecord
  2
Hidden
 70
     0
 62
     4
  6
HIDDEN
370
    13
390
F
  0
LAYER
  5
B154
330
2
100
AcDbSymbolTableRecord
100
AcDbLayerTableRecord
  2
PHANTOM
 70
     0
 62
     4
  6
PHANTOM
370
    13
390
F
  0
ENDTAB
  0
TABLE
  2
STYLE
  5
3
330
0
100
AcDbSymbolTable
 70
     3
  0
STYLE
  5
11
330
3
100
AcDbSymbolTableRecord
100
AcDbTextStyleTableRecord
  2
Standard
 70
     0
 40
0.0
 41
1.0
 50
0.0
 71
     0
 42
2.5
  3
romans.shx
  4
bigfont.shx
  0
STYLE
  5
34
330
3
100
AcDbSymbolTableRecord
100
AcDbTextStyleTableRecord
  2

 70
     1
 40
0.0
 41
1.0
 50
0.0
 71
     0
 42
2.5
  3
ltypeshp.shx
  4

  0
STYLE
  5
12E
330
3
100
AcDbSymbolTableRecord
100
AcDbTextStyleTableRecord
  2
ｽﾀｲﾙ1
 70
     0
 40
2.5
 41
1.0
 50
0.0
 71
     0
 42
2.5
  3
txt.shx
  4

  0
ENDTAB
  0
TABLE
  2
VIEW
  5
6
330
0
100
AcDbSymbolTable
 70
     0
  0
ENDTAB
  0
TABLE
  2
UCS
  5
7
330
0
100
AcDbSymbolTable
 70
     0
  0
ENDTAB
  0
TABLE
  2
APPID
  5
9
330
0
100
AcDbSymbolTable
 70
     1
  0
APPID
  5
12
330
9
100
AcDbSymbolTableRecord
100
AcDbRegAppTableRecord
  2
ACAD
 70
     0
  0
ENDTAB
  0
TABLE
  2
DIMSTYLE
  5
A
330
0
100
AcDbSymbolTable
 70
     3
100
AcDbDimStyleTable
 71
     1
340
27
  0
DIMSTYLE
105
27
330
A
100
AcDbSymbolTableRecord
100
AcDbDimStyleTableRecord
  2
ISO-25
 70
     0
 41
5.0
 42
2.0
 43
3.75
 44
5.0
 73
     0
 74
     0
 77
     1
 78
     8
140
6.0
141
2.5
143
0.1
147
3.0
171
     3
172
     1
176
     7
177
     7
271
     2
272
     2
274
     3
283
     0
284
     8
340
11
371
     9
372
     9
  0
DIMSTYLE
105
AC
330
A
100
AcDbSymbolTableRecord
100
AcDbDimStyleTableRecord
  2
JIS
 70
     0
 41
2.5
 42
1.0
 43
7.0
 44
1.0
 73
     0
 74
     0
 77
     1
 78
     8
140
2.5
141
0.0
143
0.0394
147
0.0
172
     1
174
     1
175
     1
340
11
  0
DIMSTYLE
105
61DD
330
A
100
AcDbSymbolTableRecord
100
AcDbDimStyleTableRecord
  2
ｺﾋﾟｰ - ISO-25
 70
     0
 41
2.5
 42
0.625
 43
3.75
 44
1.25
 73
     0
 74
     0
 77
     1
 78
     8
140
2.5
141
2.5
143
0.03937007874016
147
0.625
171
     3
172
     1
271
     2
272
     2
274
     3
283
     0
284
     8
340
11
343
61D8
  0
ENDTAB
  0
TABLE
  2
BLOCK_RECORD
  5
1
330
0
100
AcDbSymbolTable
 70
     2
  0
BLOCK_RECORD
  5
1F
330
1
100
AcDbSymbolTableRecord
100
AcDbBlockTableRecord
  2
*Model_Space
340
22
  0
BLOCK_RECORD
  5
1B
330
1
100
AcDbSymbolTableRecord
100
AcDbBlockTableRecord
  2
*Paper_Space
340
1E
  0
BLOCK_RECORD
  5
23
330
1
100
AcDbSymbolTableRecord
100
AcDbBlockTableRecord
  2
*Paper_Space0
340
26
  0
BLOCK_RECORD
  5
61D8
330
1
100
AcDbSymbolTableRecord
100
AcDbBlockTableRecord
  2
_Dot
340
0
  0
ENDTAB
  0
ENDSEC
  0
SECTION
  2
BLOCKS
  0
BLOCK
  5
20
330
1F
100
AcDbEntity
  8
0
100
AcDbBlockBegin
  2
*Model_Space
 70
     0
 10
0.0
 20
0.0
 30
0.0
  3
*Model_Space
  1

  0
ENDBLK
  5
21
330
1F
100
AcDbEntity
  8
0
100
AcDbBlockEnd
  0
BLOCK
  5
1C
330
1B
100
AcDbEntity
 67
     1
  8
0
100
AcDbBlockBegin
  2
*Paper_Space
 70
     0
 10
0.0
 20
0.0
 30
0.0
  3
*Paper_Space
  1

  0
ENDBLK
  5
1D
330
1B
100
AcDbEntity
 67
     1
  8
0
100
AcDbBlockEnd
  0
BLOCK
  5
24
330
23
100
AcDbEntity
  8
0
100
AcDbBlockBegin
  2
*Paper_Space0
 70
     0
 10
0.0
 20
0.0
 30
0.0
  3
*Paper_Space0
  1

  0
VIEWPORT
  5
922
330
23
100
AcDbEntity
  8
0
100
AcDbViewport
 10
0.0
 20
0.0
 30
0.0
 40
0.0
 41
0.0
 69
     0
 12
0.0
 22
0.0
 13
0.0
 23
0.0
 14
10.0
 24
10.0
 15
10.0
 25
10.0
 16
0.0
 26
0.0
 36
1.0
 17
0.0
 27
0.0
 37
0.0
 42
50.0
 43
0.0
 44
0.0
 45
0.0
 50
0.0
 51
0.0
 72
   100
 90
    32800
  1

281
     0
 71
     1
 74
     0
110
0.0
120
0.0
130
0.0
111
1.0
121
0.0
131
0.0
112
0.0
122
1.0
132
0.0
 79
     0
146
0.0
  0
VIEWPORT
  5
924
330
23
100
AcDbEntity
  8
0
100
AcDbViewport
 10
0.0
 20
0.0
 30
0.0
 40
0.0
 41
0.0
 69
     0
 12
8199.401833840978
 22
6162.095030619208
 13
0.0
 23
0.0
 14
10.0
 24
10.0
 15
10.0
 25
10.0
 16
0.0
 26
0.0
 36
1.0
 17
0.0
 27
0.0
 37
0.0
 42
50.0
 43
0.0
 44
0.0
 45
12844.48115925182
 50
0.0
 51
0.0
 72
   100
 90
    32864
  1

281
     0
 71
     1
 74
     0
110
0.0
120
0.0
130
0.0
111
1.0
121
0.0
131
0.0
112
0.0
122
1.0
132
0.0
 79
     0
146
0.0
  0
ENDBLK
  5
25
330
23
100
AcDbEntity
  8
0
100
AcDbBlockEnd
  0
BLOCK
  5
61DB
330
61D8
100
AcDbEntity
  8
0
100
AcDbBlockBegin
  2
_Dot
 70
     0
 10
0.0
 20
0.0
 30
0.0
  3
_Dot
  1

  0
LWPOLYLINE
  5
61D9
330
61D8
100
AcDbEntity
  8
0
 62
     0
100
AcDbPolyline
 90
        2
 70
     1
 43
0.5
 10
-0.25
 20
0.0
 42
1.0
 10
0.25
 20
0.0
 42
1.0
  0
LINE
  5
61DA
330
61D8
100
AcDbEntity
  8
0
 62
     0
370
    -2
100
AcDbLine
 10
-0.5
 20
0.0
 30
0.0
 11
-1.0
 21
0.0
 31
0.0
  0
ENDBLK
  5
61DC
330
61D8
100
AcDbEntity
  8
0
100
AcDbBlockEnd
  0
ENDSEC
  0
SECTION
  2
ENTITIES
  0
LINE
  5
60DA
330
1F
100
AcDbEntity
  8
２
 62
     0
370
    20
100
AcDbLine
 10
-113.6069841392893
 20
817.5308658634676
 30
0.0
 11
682.3930158607106
 21
817.5308658634676
 31
0.0
  0
LINE
  5
60DB
330
1F
100
AcDbEntity
  8
２
 62
     0
 48
25.0
100
AcDbLine
 10
-113.6069841392893
 20
837.5308658634676
 30
0.0
 11
682.3930158607106
 21
837.5308658634676
 31
0.0
  0
LINE
  5
60DC
330
1F
100
AcDbEntity
  8
２
 62
     0
 48
25.0
100
AcDbLine
 10
-113.6069841392893
 20
837.5308658634676
 30
0.0
 11
682.3930158607106
 21
837.5308658634676
 31
0.0
  0
LINE
  5
60DD
330
1F
100
AcDbEntity
  8
0
 62
     0
 48
25.0
100
AcDbLine
 10
279.1215549150597
 20
837.5308658634676
 30
0.0
 11
318.4215549150597
 21
837.5308658634676
 31
0.0
  0
LINE
  5
60DE
330
1F
100
AcDbEntity
  8
２
 62
     0
370
    20
100
AcDbLine
 10
682.3930158607106
 20
817.5308658634676
 30
0.0
 11
-67.60698413928935
 21
817.5308658634678
 31
0.0
  0
LINE
  5
60DF
330
1F
100
AcDbEntity
  8
１
 62
     0
 48
25.0
100
AcDbLine
 10
-103.8208647361605
 20
827.5308658634676
 30
0.0
 11
173.6637676806376
 21
827.5308658634671
 31
0.0
  0
LINE
  5
60E0
330
1F
100
AcDbEntity
  8
１
 62
     0
 48
25.0
100
AcDbLine
 10
173.6637676806376
 20
822.5308658634673
 30
0.0
 11
-103.8208647361605
 21
822.5308658634672
 31
0.0
  0
LINE
  5
60E1
330
1F
100
AcDbEntity
  8
１
 62
     0
 48
25.0
100
AcDbLine
 10
173.6637676806376
 20
832.5308658634677
 30
0.0
 11
-103.8208647361605
 21
832.5308658634677
 31
0.0
  0
LINE
  5
60E2
330
1F
100
AcDbEntity
  8
0
 62
     0
100
AcDbLine
 10
-67.60698413928935
 20
817.5308658634676
 30
0.0
 11
-113.6069841392893
 21
817.5308658634676
 31
0.0
  0
LINE
  5
60E3
330
1F
100
AcDbEntity
  8
２
 62
     0
 48
25.0
100
AcDbLine
 10
-107.8208647361605
 20
837.5308658634676
 30
0.0
 11
-107.8208647361605
 21
817.5308658634676
 31
0.0
  0
LINE
  5
60E4
330
1F
100
AcDbEntity
  8
２
 62
     0
 48
25.0
100
AcDbLine
 10
-113.6069841392893
 20
817.5308658634676
 30
0.0
 11
-117.6069841392893
 21
817.5308658634676
 31
0.0
  0
LINE
  5
60E5
330
1F
100
AcDbEntity
  8
２
 62
     0
 48
25.0
100
AcDbLine
 10
-117.6069841392893
 20
817.6093089910487
 30
0.0
 11
-117.6069841392893
 21
817.5308658634676
 31
0.0
  0
LINE
  5
60E6
330
1F
100
AcDbEntity
  8
0
 62
     0
 48
25.0
100
AcDbLine
 10
-113.6069841392893
 20
837.5308658634676
 30
0.0
 11
-107.8208647361605
 21
837.5308658634676
 31
0.0
  0
MTEXT
  5
60E7
330
1F
100
AcDbEntity
  8
２
 62
     0
 48
25.0
100
AcDbMText
 10
-112.2139241392893
 20
827.5308658634678
 30
0.0
 40
4.5
 41
9.78612
 71
     5
 72
     5
  1
記\P事
 73
     1
 44
1.0
  0
LINE
  5
60E8
330
1F
100
AcDbEntity
  8
２
 62
     0
 48
25.0
100
AcDbLine
 10
-113.6069841392893
 20
837.5308658634676
 30
0.0
 11
-117.6069841392893
 21
837.5308658634676
 31
0.0
  0
LINE
  5
60E9
330
1F
100
AcDbEntity
  8
１
 62
     0
 48
25.0
100
AcDbLine
 10
-103.8208647361605
 20
822.5308658634672
 30
0.0
 11
-107.8208647361605
 21
822.5308658634672
 31
0.0
  0
LINE
  5
60EA
330
1F
100
AcDbEntity
  8
１
 62
     0
 48
25.0
100
AcDbLine
 10
-103.8208647361605
 20
827.5308658634676
 30
0.0
 11
-107.8208647361605
 21
827.5308658634676
 31
0.0
  0
LINE
  5
60EB
330
1F
100
AcDbEntity
  8
１
 62
     0
 48
25.0
100
AcDbLine
 10
-103.8208647361605
 20
832.5308658634677
 30
0.0
 11
-107.8208647361605
 21
832.5308658634677
 31
0.0
  0
LINE
  5
60EC
330
1F
100
AcDbEntity
  8
２
 62
     0
 48
25.0
100
AcDbLine
 10
173.6637676806376
 20
837.5308658634676
 30
0.0
 11
279.1215549150597
 21
837.5308658634676
 31
0.0
  0
LINE
  5
60ED
330
1F
100
AcDbEntity
  8
１
 62
     0
 48
25.0
100
AcDbLine
 10
173.6637676806376
 20
827.5308658634676
 30
0.0
 11
279.1215549150597
 21
827.5308658634676
 31
0.0
  0
MTEXT
  5
60EE
330
1F
100
AcDbEntity
  8
２
 62
     0
 48
25.0
100
AcDbMText
 10
193.3117526806377
 20
822.5308658634677
 30
0.0
 40
6.0
 41
39.296
 71
     5
 72
     5
  1
作図者
 73
     1
 44
1.0
  0
MTEXT
  5
60EF
330
1F
100
AcDbEntity
  8
２
 62
     0
 48
25.0
100
AcDbMText
 10
194.0347626806376
 20
832.5308658634677
 30
0.0
 40
6.0
 41
40.742
 71
     5
 72
     5
  1
作図日
 73
     1
 44
1.0
  0
LINE
  5
60F0
330
1F
100
AcDbEntity
  8
２
 62
     0
 48
25.0
100
AcDbLine
 10
173.6637676806376
 20
827.5308658634671
 30
0.0
 11
173.6637676806376
 21
817.5308658634676
 31
0.0
  0
LINE
  5
60F1
330
1F
100
AcDbEntity
  8
２
 62
     0
 48
25.0
100
AcDbLine
 10
173.6637676806376
 20
837.5308658634676
 30
0.0
 11
173.6637676806376
 21
817.5308658634676
 31
0.0
  0
LINE
  5
60F2
330
1F
100
AcDbEntity
  8
0
 62
     0
 48
25.0
100
AcDbLine
 10
173.6637676806376
 20
837.5308658634676
 30
0.0
 11
173.6637676806376
 21
827.5308658634676
 31
0.0
  0
LINE
  5
60F3
330
1F
100
AcDbEntity
  8
２
 62
     0
 48
25.0
100
AcDbLine
 10
212.9597354275438
 20
837.5308658634676
 30
0.0
 11
212.9597354275438
 21
817.5308658634676
 31
0.0
  0
LINE
  5
60F6
330
1F
100
AcDbEntity
  8
２
 62
     0
 48
25.0
100
AcDbLine
 10
279.1215549150597
 20
837.5308658634677
 30
0.0
 11
279.1215549150597
 21
817.5308658634678
 31
0.0
  0
LINE
  5
60F7
330
1F
100
AcDbEntity
  8
１
 62
     0
 48
25.0
100
AcDbLine
 10
318.4215549150597
 20
827.5308658634676
 30
0.0
 11
528.649591227999
 21
827.5308658634676
 31
0.0
  0
LINE
  5
60F8
330
1F
100
AcDbEntity
  8
0
 62
     0
 48
25.0
100
AcDbLine
 10
341.3965544355929
 20
837.5308658634676
 30
0.0
 11
460.2880544355928
 21
837.5308658634676
 31
0.0
  0
MTEXT
  5
60F9
330
1F
100
AcDbEntity
  8
２
 62
     0
 48
25.0
100
AcDbMText
 10
338.0715549150596
 20
822.5308658634677
 30
0.0
 40
6.0
 41
39.29999999999999
 71
     5
 72
     5
  1
図　　名
 73
     1
 44
1.0
  0
LINE
  5
60FB
330
1F
100
AcDbEntity
  8
0
 62
     0
 48
25.0
100
AcDbLine
 10
318.4215549150597
 20
837.5308658634676
 30
0.0
 11
357.7215549150596
 21
837.5308658634676
 31
0.0
  0
MTEXT
  5
60FC
330
1F
100
AcDbEntity
  8
２
 62
     0
 48
25.0
100
AcDbMText
 10
298.2565124150596
 20
827.5308658634678
 30
0.0
 40
4.5
 41
32.06989999999999
 71
     5
 72
     5
  1
Ｓ＝1/2
 73
     1
 44
1.0
  0
LINE
  5
60FD
330
1F
100
AcDbEntity
  8
２
 62
     0
 48
25.0
100
AcDbLine
 10
318.4215549150597
 20
837.5308658634676
 30
0.0
 11
318.4215549150597
 21
817.5308658634676
 31
0.0
  0
LINE
  5
60FE
330
1F
100
AcDbEntity
  8
0
 62
     0
 48
25.0
100
AcDbLine
 10
318.4215549150597
 20
837.5308658634676
 30
0.0
 11
318.4215549150597
 21
817.5308658634676
 31
0.0
  0
LINE
  5
60FF
330
1F
100
AcDbEntity
  8
２
 62
     0
 48
25.0
100
AcDbLine
 10
357.7215549150596
 20
837.5308658634676
 30
0.0
 11
357.7215549150596
 21
817.5308658634676
 31
0.0
  0
LINE
  5
6100
330
1F
100
AcDbEntity
  8
２
 62
     0
 48
25.0
100
AcDbLine
 10
528.649591227999
 20
837.5308658634676
 30
0.0
 11
528.649591227999
 21
817.5308658634676
 31
0.0
  0
MTEXT
  5
6101
330
1F
100
AcDbEntity
  8
２
 62
     0
 48
25.0
100
AcDbMText
 10
626.0641145896142
 20
827.5308658634678
 30
0.0
 40
6.0
 41
103.21335
 71
     5
 72
     5
  1
株式会社{\H1.25x; アルティマ}
 73
     1
 44
1.0
  0
ARC
  5
6102
330
1F
100
AcDbEntity
  8
Object
 62
     0
 48
0.3
100
AcDbCircle
 10
568.3681132541858
 20
824.3086653690383
 30
0.0
 40
4.049999999999999
100
AcDbArc
 50
180.0
 51
257.3448222610501
  0
LINE
  5
6103
102
{ACAD_REACTORS
330
6105
102
}
330
1F
100
AcDbEntity
  8
Object
 62
     0
 48
0.3
100
AcDbLine
 10
546.6185729416677
 20
834.8220867758399
 30
0.0
 11
549.3185729416677
 21
834.8220867758399
 31
0.0
  0
ARC
  5
6104
102
{ACAD_REACTORS
330
6105
102
}
330
1F
100
AcDbEntity
  8
Object
 62
     0
 48
0.3
100
AcDbCircle
 10
545.2685729416677
 20
824.29208677584
 30
0.0
 40
4.049999999999999
100
AcDbArc
 50
180.0
 51
0.0
  0
HATCH
  5
6105
330
1F
100
AcDbEntity
  8
Object
 62
     0
 48
0.3
100
AcDbHatch
 10
0.0
 20
0.0
 30
0.0
210
0.0
220
0.0
230
1.0
  2
ANSI31
 70
     0
 71
     1
 91
        1
 92
        1
 93
        8
 72
     1
 10
543.9185729416676
 20
834.8220867758399
 11
541.2185729416676
 21
834.8220867758399
 72
     1
 10
541.2185729416676
 20
834.8220867758399
 11
541.2185729416676
 21
824.29208677584
 72
     2
 10
545.2685729416677
 20
824.29208677584
 40
4.049999999999999
 50
180.0
 51
360.0
 73
     1
 72
     1
 10
549.3185729416677
 20
824.29208677584
 11
549.3185729416677
 21
834.8220867758399
 72
     1
 10
549.3185729416677
 20
834.8220867758399
 11
546.6185729416677
 21
834.8220867758399
 72
     1
 10
546.6185729416677
 20
834.8220867758399
 11
546.6185729416677
 21
824.29208677584
 72
     2
 10
545.2685729416677
 20
824.29208677584
 40
1.35
 50
360.0
 51
540.0
 73
     0
 72
     1
 10
543.9185729416676
 20
824.29208677584
 11
543.9185729416676
 21
834.8220867758399
 97
        8
330
610B
330
6106
330
6104
330
610D
330
6103
330
6108
330
6109
330
6107
 75
     0
 76
     1
 52
0.0
 41
0.01125
 77
     0
 78
     1
 53
45.0
 43
388.6807673218097
 44
717.6334720785245
 45
-0.025256970340507
 46
0.025256970340507
 79
     0
 98
        1
 10
388.6807673218097
 20
717.6334720785245
  0
LINE
  5
6106
102
{ACAD_REACTORS
330
6105
102
}
330
1F
100
AcDbEntity
  8
Object
 62
     0
 48
0.3
100
AcDbLine
 10
541.2185729416676
 20
824.29208677584
 30
0.0
 11
541.2185729416676
 21
834.8220867758399
 31
0.0
  0
LINE
  5
6107
102
{ACAD_REACTORS
330
6105
102
}
330
1F
100
AcDbEntity
  8
Object
 62
     0
 48
0.3
100
AcDbLine
 10
543.9185729416676
 20
834.8220867758399
 30
0.0
 11
543.9185729416676
 21
824.29208677584
 31
0.0
  0
LINE
  5
6108
102
{ACAD_REACTORS
330
6105
102
}
330
1F
100
AcDbEntity
  8
Object
 62
     0
 48
0.3
100
AcDbLine
 10
546.6185729416677
 20
834.8220867758399
 30
0.0
 11
546.6185729416677
 21
824.29208677584
 31
0.0
  0
ARC
  5
6109
102
{ACAD_REACTORS
330
6105
102
}
330
1F
100
AcDbEntity
  8
Object
 62
     0
 48
0.3
100
AcDbCircle
 10
545.2685729416677
 20
824.29208677584
 30
0.0
 40
1.35
100
AcDbArc
 50
180.0
 51
0.0
  0
LINE
  5
610A
330
1F
100
AcDbEntity
  8
Object
 62
     0
 48
0.3
100
AcDbLine
 10
541.2185729416676
 20
834.8220867758399
 30
0.0
 11
543.9185729416676
 21
834.8220867758399
 31
0.0
  0
LINE
  5
610B
102
{ACAD_REACTORS
330
6105
102
}
330
1F
100
AcDbEntity
  8
Object
 62
     0
 48
0.3
100
AcDbLine
 10
543.9185729416676
 20
834.8220867758399
 30
0.0
 11
541.2185729416676
 21
834.8220867758399
 31
0.0
  0
LINE
  5
610C
102
{ACAD_REACTORS
330
610F
102
}
330
1F
100
AcDbEntity
  8
Object
 62
     0
 48
0.3
100
AcDbLine
 10
556.5185729416677
 20
834.8220867758399
 30
0.0
 11
556.5185729416677
 21
822.9420867758401
 31
0.0
  0
LINE
  5
610D
102
{ACAD_REACTORS
330
6105
102
}
330
1F
100
AcDbEntity
  8
Object
 62
     0
 48
0.3
100
AcDbLine
 10
549.3185729416677
 20
834.8220867758399
 30
0.0
 11
549.3185729416677
 21
824.29208677584
 31
0.0
  0
LINE
  5
610E
102
{ACAD_REACTORS
330
610F
102
}
330
1F
100
AcDbEntity
  8
Object
 62
     0
 48
0.3
100
AcDbLine
 10
553.8185729416677
 20
834.8220867758399
 30
0.0
 11
553.8185729416677
 21
820.24208677584
 31
0.0
  0
HATCH
  5
610F
330
1F
100
AcDbEntity
  8
Object
 62
     0
 48
0.3
100
AcDbHatch
 10
0.0
 20
0.0
 30
0.0
210
0.0
220
0.0
230
1.0
  2
ANSI31
 70
     0
 71
     1
 91
        1
 92
        1
 93
        6
 72
     1
 10
553.8185729416677
 20
834.8220867758399
 11
556.5185729416677
 21
834.8220867758399
 72
     1
 10
556.5185729416677
 20
834.8220867758399
 11
556.5185729416677
 21
822.9420867758401
 72
     1
 10
556.5185729416677
 20
822.9420867758401
 11
561.9185729416677
 21
822.9420867758401
 72
     1
 10
561.9185729416677
 20
822.9420867758401
 11
561.9185729416677
 21
820.24208677584
 72
     1
 10
561.9185729416677
 20
820.24208677584
 11
553.8185729416677
 21
820.24208677584
 72
     1
 10
553.8185729416677
 20
820.24208677584
 11
553.8185729416677
 21
834.8220867758399
 97
        6
330
6113
330
610C
330
6112
330
6111
330
6110
330
610E
 75
     0
 76
     1
 52
0.0
 41
0.01125
 77
     0
 78
     1
 53
45.0
 43
388.6807673218097
 44
717.6334720785245
 45
-0.025256970340507
 46
0.025256970340507
 79
     0
 98
        1
 10
388.6807673218097
 20
717.6334720785245
  0
LINE
  5
6110
102
{ACAD_REACTORS
330
610F
102
}
330
1F
100
AcDbEntity
  8
Object
 62
     0
 48
0.3
100
AcDbLine
 10
553.8185729416677
 20
820.24208677584
 30
0.0
 11
561.9185729416677
 21
820.24208677584
 31
0.0
  0
LINE
  5
6111
102
{ACAD_REACTORS
330
610F
102
}
330
1F
100
AcDbEntity
  8
Object
 62
     0
 48
0.3
100
AcDbLine
 10
561.9185729416677
 20
820.24208677584
 30
0.0
 11
561.9185729416677
 21
822.9420867758401
 31
0.0
  0
LINE
  5
6112
102
{ACAD_REACTORS
330
610F
102
}
330
1F
100
AcDbEntity
  8
Object
 62
     0
 48
0.3
100
AcDbLine
 10
561.9185729416677
 20
822.9420867758401
 30
0.0
 11
556.5185729416677
 21
822.9420867758401
 31
0.0
  0
LINE
  5
6113
102
{ACAD_REACTORS
330
610F
102
}
330
1F
100
AcDbEntity
  8
Object
 62
     0
 48
0.3
100
AcDbLine
 10
553.8185729416677
 20
834.8220867758399
 30
0.0
 11
556.5185729416677
 21
834.8220867758399
 31
0.0
  0
LINE
  5
6114
330
1F
100
AcDbEntity
  8
Object
 62
     0
 48
0.3
100
AcDbLine
 10
572.4181132541859
 20
830.7720867758398
 30
0.0
 11
572.4181132541859
 21
829.2123630550754
 31
0.0
  0
LINE
  5
6115
330
1F
100
AcDbEntity
  8
Object
 62
     0
 48
0.3
100
AcDbLine
 10
567.0181132541858
 20
824.3086653690383
 30
0.0
 11
567.0181132541858
 21
830.7720867758398
 31
0.0
  0
LINE
  5
6116
330
1F
100
AcDbEntity
  8
Object
 62
     0
 48
0.3
100
AcDbLine
 10
564.3181132541858
 20
824.1537331999293
 30
0.0
 11
564.3181132541858
 21
830.7720867758398
 31
0.0
  0
LINE
  5
6117
330
1F
100
AcDbEntity
  8
Object
 62
     0
 48
0.3
100
AcDbLine
 10
569.7181132541859
 20
829.2123630550754
 30
0.0
 11
569.7181132541859
 21
830.7720867758398
 31
0.0
  0
LINE
  5
6118
330
1F
100
AcDbEntity
  8
Object
 62
     0
 48
0.3
100
AcDbLine
 10
567.0181132541858
 20
824.3086653690383
 30
0.0
 11
567.0181132541858
 21
830.7720867758398
 31
0.0
  0
HATCH
  5
6119
330
1F
100
AcDbEntity
  8
Object
 62
     0
 48
0.3
100
AcDbHatch
 10
0.0
 20
0.0
 30
0.0
210
0.0
220
0.0
230
1.0
  2
ANSI31
 70
     0
 71
     0
 91
        1
 92
        7
 72
     1
 73
     1
 93
       17
 10
567.0181132541858
 20
824.3086653690385
 42
0.0
 10
567.0181132541858
 20
830.77208677584
 42
-1.0
 10
569.7181132541859
 20
830.77208677584
 42
0.0
 10
569.7181132541859
 20
829.2123630550756
 42
0.0
 10
572.4181132541859
 20
829.2123630550756
 42
0.0
 10
572.4181132541859
 20
830.77208677584
 42
1.0
 10
564.3181132541858
 20
830.77208677584
 42
0.0
 10
564.3181132541858
 20
824.3086653690385
 42
0.3509045778193816
 10
567.4808271837385
 20
820.3570551365903
 42
0.4071999015487891
 10
569.7181132541859
 20
821.6727720151556
 42
0.0
 10
569.7181132541859
 20
820.24208677584
 42
0.0
 10
572.4181132541859
 20
820.24208677584
 42
0.0
 10
572.4181132541859
 20
827.58962883278
 42
0.0
 10
568.371917058751
 20
827.58962883278
 42
0.0
 10
568.3719170587507
 20
824.8896288327799
 42
0.0
 10
569.7181132541859
 20
824.8896288327799
 42
0.0
 10
569.7181132541859
 20
824.3086653690385
 42
-1.0
 97
        0
 75
     0
 76
     1
 52
0.0
 41
0.01125
 77
     0
 78
     1
 53
45.0
 43
388.6807673218097
 44
717.6334720785245
 45
-0.025256970340507
 46
0.025256970340507
 79
     0
 47
0.0407053698821989
 98
        1
 10
568.0942869891232
 20
822.1037355012922
  0
LINE
  5
611A
330
1F
100
AcDbEntity
  8
Object
 62
     0
 48
0.3
100
AcDbLine
 10
569.7181132541859
 20
829.2123630550754
 30
0.0
 11
572.4181132541859
 21
829.2123630550754
 31
0.0
  0
LINE
  5
611B
330
1F
100
AcDbEntity
  8
Object
 62
     0
 48
0.3
100
AcDbLine
 10
572.4181132541859
 20
827.5896288327798
 30
0.0
 11
568.371917058751
 21
827.5896288327798
 31
0.0
  0
LINE
  5
611C
330
1F
100
AcDbEntity
  8
Object
 62
     0
 48
0.3
100
AcDbLine
 10
569.7181132541859
 20
820.24208677584
 30
0.0
 11
572.4181132541859
 21
820.24208677584
 31
0.0
  0
LINE
  5
611D
330
1F
100
AcDbEntity
  8
Object
 62
     0
 48
0.3
100
AcDbLine
 10
572.4181132541859
 20
820.24208677584
 30
0.0
 11
569.7181132541859
 21
820.24208677584
 31
0.0
  0
LINE
  5
611E
330
1F
100
AcDbEntity
  8
Object
 62
     0
 48
0.3
100
AcDbLine
 10
568.371917058751
 20
827.5896288327798
 30
0.0
 11
568.371917058751
 21
824.8896288327799
 31
0.0
  0
LINE
  5
611F
330
1F
100
AcDbEntity
  8
Object
 62
     0
 48
0.3
100
AcDbLine
 10
568.371917058751
 20
824.8896288327799
 30
0.0
 11
569.7181132541859
 21
824.8896288327799
 31
0.0
  0
LINE
  5
6120
330
1F
100
AcDbEntity
  8
Object
 62
     0
 48
0.3
100
AcDbLine
 10
569.7181132541859
 20
824.3086653690383
 30
0.0
 11
569.7181132541859
 21
824.8896288327799
 31
0.0
  0
LINE
  5
6121
330
1F
100
AcDbEntity
  8
Object
 62
     0
 48
0.3
100
AcDbLine
 10
569.7181132541859
 20
824.8896288327799
 30
0.0
 11
569.7181132541859
 21
824.2651066341716
 31
0.0
  0
LINE
  5
6122
330
1F
100
AcDbEntity
  8
Object
 62
     0
 48
0.3
100
AcDbLine
 10
568.371917058751
 20
824.8896288327799
 30
0.0
 11
569.7181132541859
 21
824.8896288327799
 31
0.0
  0
LINE
  5
6123
330
1F
100
AcDbEntity
  8
Object
 62
     0
 48
0.3
100
AcDbLine
 10
569.7181132541859
 20
824.8896288327799
 30
0.0
 11
569.7181132541859
 21
824.3086653690383
 31
0.0
  0
ARC
  5
6124
330
1F
100
AcDbEntity
  8
Object
 62
     0
 48
0.3
100
AcDbCircle
 10
568.3681132541858
 20
824.3086653690383
 30
0.0
 40
1.35
100
AcDbArc
 50
180.0
 51
0.0
  0
ARC
  5
6125
330
1F
100
AcDbEntity
  8
Object
 62
     0
 48
0.3
100
AcDbCircle
 10
567.9256270136168
 20
822.1607376065174
 30
0.0
 40
1.857718315833298
100
AcDbArc
 50
256.1468978562146
 51
344.7714912032799
  0
LINE
  5
6126
330
1F
100
AcDbEntity
  8
Object
 62
     0
 48
0.3
100
AcDbLine
 10
569.7181132541859
 20
821.672772015151
 30
0.0
 11
569.7181132541859
 21
820.24208677584
 31
0.0
  0
LINE
  5
6127
330
1F
100
AcDbEntity
  8
Object
 62
     0
 48
0.3
100
AcDbLine
 10
572.4181132541859
 20
827.5896288327794
 30
0.0
 11
572.4181132541859
 21
820.24208677584
 31
0.0
  0
ARC
  5
6128
330
1F
100
AcDbEntity
  8
Object
 62
     0
 48
0.3
100
AcDbCircle
 10
568.3681132541858
 20
830.7720867758398
 30
0.0
 40
4.049999999999999
100
AcDbArc
 50
0.0
 51
180.0
  0
ARC
  5
6129
330
1F
100
AcDbEntity
  8
Object
 62
     0
 48
0.3
100
AcDbCircle
 10
568.3681132541858
 20
830.7720867758398
 30
0.0
 40
1.35
100
AcDbArc
 50
0.0
 51
180.0
  0
LINE
  5
612A
330
1F
100
AcDbEntity
  8
２
 62
     0
 48
25.0
100
AcDbLine
 10
-117.6069841392893
 20
817.5308658634676
 30
0.0
 11
682.3930158607106
 21
817.5308658634675
 31
0.0
  0
LINE
  5
61A6
330
1F
100
AcDbEntity
  8
２
 62
     0
 48
25.0
100
AcDbLine
 10
-117.6069841392893
 20
817.5308658634675
 30
0.0
 11
-117.6069841392893
 21
1367.530865863467
 31
0.0
  0
LINE
  5
61A7
330
1F
100
AcDbEntity
  8
２
 62
     0
 48
25.0
100
AcDbLine
 10
-117.6069841392893
 20
1367.530865863467
 30
0.0
 11
682.3930158607105
 21
1367.530865863467
 31
0.0
  0
LINE
  5
61A8
330
1F
100
AcDbEntity
  8
２
 62
     0
 48
25.0
100
AcDbLine
 10
682.3930158607105
 20
1367.530865863467
 30
0.0
 11
682.3930158607106
 21
817.5308658634675
 31
0.0
  0
MTEXT
  5
6487
330
1F
100
AcDbEntity
  8
４
 62
     0
 48
0.5
100
AcDbMText
 10
171.1613615566535
 20
820.0308658634675
 30
0.0
 40
2.5
 41
7.0048
 71
     5
 72
     5
  1
6
 73
     1
 44
1.0
  0
MTEXT
  5
805E
330
1F
100
AcDbEntity
  8
0
 48
0.5
100
AcDbMText
 10
29.16955816236122
 20
1035.5359660895
 30
0.0
 40
6.0
 41
20.438
 71
     9
 72
     1
  1

 73
     1
 44
1.0
  0
MTEXT
  5
8061
330
1F
100
AcDbEntity
  8
0
 48
0.5
100
AcDbMText
 10
18.39555542707603
 20
1011.50872061242
 30
0.0
 40
6.0
 41
20.438
 71
     9
 72
     1
  1

 73
     1
 44
1.0
  0
LINE
  5
9B86
330
1F
100
AcDbEntity
  8
0
 62
     0
 48
0.5
100
AcDbLine
 10
-26.71109372259389
 20
1040.202732824258
 30
0.0
 11
-26.71109372259389
 21
1150.202732824258
 31
0.0
  0
LINE
  5
9B87
330
1F
100
AcDbEntity
  8
0
 62
     0
 48
0.5
100
AcDbLine
 10
-26.71109372259389
 20
1150.202732824258
 30
0.0
 11
123.2889062774061
 21
1150.202732824258
 31
0.0
  0
LINE
  5
9B88
330
1F
100
AcDbEntity
  8
0
 62
     0
 48
0.5
100
AcDbLine
 10
273.2889062774061
 20
1063.600192445814
 30
0.0
 11
273.2889062774061
 21
953.6001924458144
 31
0.0
  0
LINE
  5
9B8A
330
1F
100
AcDbEntity
  8
0
 62
     0
 48
0.5
100
AcDbLine
 10
273.2889062774061
 20
953.6001924458144
 30
0.0
 11
273.2889062774061
 21
1063.600192445814
 31
0.0
  0
LINE
  5
9B90
330
1F
100
AcDbEntity
  8
0
 62
     0
 48
0.5
100
AcDbLine
 10
-26.71109372259389
 20
1151.802732824258
 30
0.0
 11
123.2889062774061
 21
1151.802732824258
 31
0.0
  0
LINE
  5
9B93
330
1F
100
AcDbEntity
  8
0
 62
     0
 48
0.5
100
AcDbLine
 10
-25.11109372259386
 20
1040.202732824258
 30
0.0
 11
-25.11109372259386
 21
1150.202732824258
 31
0.0
  0
LINE
  5
9B94
330
1F
100
AcDbEntity
  8
0
 62
     0
 48
0.5
100
AcDbLine
 10
274.8889062774062
 20
1063.377053716889
 30
0.0
 11
274.8889062774061
 21
953.6001924458144
 31
0.0
  0
LINE
  5
9B95
330
1F
100
AcDbEntity
  8
0
 62
     0
 48
0.5
100
AcDbLine
 10
274.8889062774061
 20
953.6001924458144
 30
0.0
 11
274.8889062774061
 21
1063.377053716889
 31
0.0
  0
LINE
  5
9B99
330
1F
100
AcDbEntity
  8
0
 62
     0
 48
0.5
100
AcDbLine
 10
422.5596370007921
 20
979.9620120031574
 30
0.0
 11
422.5596370007919
 21
870.4612736554718
 31
0.0
  0
LINE
  5
9B9A
330
1F
100
AcDbEntity
  8
0
 62
     0
 48
0.5
100
AcDbLine
 10
-26.71109372259389
 20
1151.802732824258
 30
0.0
 11
-26.71109372259389
 21
1150.202732824258
 31
0.0
  0
LINE
  5
9C46
330
1F
100
AcDbEntity
  8
0
 62
     0
 48
0.5
100
AcDbLine
 10
-25.11109372259386
 20
1119.806727460657
 30
0.0
 11
-25.11109372259386
 21
1116.006727460657
 31
0.0
  0
LINE
  5
9D19
330
1F
100
AcDbEntity
  8
0
 62
     0
 48
0.3
100
AcDbLine
 10
424.1471191944881
 20
947.6078532889347
 30
0.0
 11
422.7596370007921
 21
947.6078532889347
 31
0.0
  0
LINE
  5
9D1A
330
1F
100
AcDbEntity
  8
0
 62
     0
 48
0.3
100
AcDbLine
 10
422.7596370007921
 20
946.6078532889348
 30
0.0
 11
424.1471191944881
 21
946.6078532889348
 31
0.0
  0
LINE
  5
9D1B
330
1F
100
AcDbEntity
  8
0
 62
     0
 48
0.3
100
AcDbLine
 10
424.1471191944881
 20
949.6078532889347
 30
0.0
 11
422.7596370007921
 21
949.6078532889347
 31
0.0
  0
LINE
  5
9D1C
330
1F
100
AcDbEntity
  8
0
 62
     0
 48
0.3
100
AcDbLine
 10
424.1471191944881
 20
950.6078532889347
 30
0.0
 11
422.7596370007921
 21
950.6078532889347
 31
0.0
  0
LINE
  5
9D1D
330
1F
100
AcDbEntity
  8
0
 62
     0
 48
0.3
100
AcDbLine
 10
422.559637000792
 20
950.6078532889347
 30
0.0
 11
422.559637000792
 21
946.6078532889348
 31
0.0
  0
LINE
  5
9D1E
330
1F
100
AcDbEntity
  8
0
100
AcDbLine
 10
422.7596370007921
 20
949.6078532889347
 30
0.0
 11
422.559637000792
 21
949.6078532889347
 31
0.0
  0
LINE
  5
9D1F
330
1F
100
AcDbEntity
  8
0
100
AcDbLine
 10
422.7596370007921
 20
950.6078532889347
 30
0.0
 11
422.559637000792
 21
950.6078532889347
 31
0.0
  0
LINE
  5
9D20
330
1F
100
AcDbEntity
  8
0
100
AcDbLine
 10
422.7596370007921
 20
946.6078532889348
 30
0.0
 11
422.559637000792
 21
946.6078532889348
 31
0.0
  0
LINE
  5
9D21
330
1F
100
AcDbEntity
  8
0
100
AcDbLine
 10
422.7596370007921
 20
947.6078532889347
 30
0.0
 11
422.559637000792
 21
947.6078532889347
 31
0.0
  0
LINE
  5
9D22
330
1F
100
AcDbEntity
  8
0
 62
     0
 48
0.3
100
AcDbLine
 10
424.2596370007921
 20
949.6078532889347
 30
0.0
 11
424.2596370007921
 21
948.6078532889347
 31
0.0
  0
ARC
  5
9D23
330
1F
100
AcDbEntity
  8
0
 62
     0
 48
0.3
100
AcDbCircle
 10
419.7596370007921
 20
948.6078532889347
 30
0.0
 40
4.5
100
AcDbArc
 50
347.160411228867
 51
12.83958840690441
  0
LINE
  5
9D24
330
1F
100
AcDbEntity
  8
0
 62
     0
 48
0.3
100
AcDbLine
 10
424.2596370007921
 20
947.0868472742091
 30
0.0
 11
424.2596370007921
 21
950.1154420181375
 31
0.0
  0
LINE
  5
9D25
330
1F
100
AcDbEntity
  8
0
 62
     0
 48
0.3
100
AcDbLine
 10
424.2596370007921
 20
950.0881265194426
 30
0.0
 11
424.2596370007921
 21
949.6078532889347
 31
0.0
  0
ARC
  5
9D26
330
1F
100
AcDbEntity
  8
0
 62
     0
 48
0.3
100
AcDbCircle
 10
423.1153469818291
 20
950.1078533216238
 30
0.0
 40
1.146539940593713
100
AcDbArc
 50
334.1450295252206
 51
25.85497047477932
  0
LINE
  5
9D27
330
1F
100
AcDbEntity
  8
0
 62
     0
 48
0.3
100
AcDbLine
 10
424.2596370007921
 20
948.6078532889347
 30
0.0
 11
424.2596370007921
 21
947.6078532889347
 31
0.0
  0
ARC
  5
9D28
330
1F
100
AcDbEntity
  8
0
 62
     0
 48
0.3
100
AcDbCircle
 10
423.1626270189656
 20
947.1078532889347
 30
0.0
 40
1.104185135891991
100
AcDbArc
 50
333.075075309887
 51
26.924924690113
  0
MTEXT
  5
9D2A
330
1F
100
AcDbEntity
  8
0
 62
     0
 48
0.5
100
AcDbMText
 10
1.215973436992811
 20
1032.762877753925
 30
0.0
 40
6.0
 41
0.0
 71
     1
 72
     1
  1
M6ボルト（孔径%%c7～8）
 73
     1
 44
1.0
  0
LEADER
  5
9D2B
330
1F
100
AcDbEntity
  8
0
 62
     0
 48
0.5
100
AcDbLeader
  3
ISO-25
 73
     0
 40
6.0
 76
     3
 10
-27.52577234835885
 20
1082.002282359482
 30
0.0
 10
-2.597344886233855
 20
1029.385575557092
 30
0.0
 10
-1.187796150909576
 20
1029.385575557092
 30
0.0
340
9D2C
213
0.0
223
-3.0
233
0.0
1001
ACAD
1000
DSTYLE
1002
{
1070
   147
1040
3.0
1070
    77
1070
     0
1002
}
  0
MTEXT
  5
9D2C
102
{ACAD_REACTORS
330
9D2B
102
}
330
1F
100
AcDbEntity
  8
0
 62
     0
 48
0.5
100
AcDbMText
 10
87.30455956487459
 20
1175.438614636807
 30
0.0
 40
6.0
 41
20.438
 71
     1
 72
     1
  1

 73
     1
 44
1.0
  0
LEADER
  5
9D2D
330
1F
100
AcDbEntity
  8
0
 62
     0
 48
0.5
100
AcDbLeader
  3
ISO-25
 40
6.0
 76
     3
 10
123.7209753248843
 20
1083.537994361485
 30
0.0
 10
148.6494027870093
 20
1030.921287559095
 30
0.0
 10
150.0589515223335
 20
1030.921287559095
 30
0.0
213
0.0
223
-3.0
233
0.0
1001
ACAD
1000
DSTYLE
1002
{
1070
   147
1040
3.0
1070
    77
1070
     0
1002
}
  0
MTEXT
  5
9D2E
330
1F
100
AcDbEntity
  8
0
 62
     0
 48
0.5
100
AcDbMText
 10
152.4627211102359
 20
1034.298589755928
 30
0.0
 40
6.0
 41
0.0
 71
     1
 72
     1
  1
M6ジョイント\P（孔径%%c7～8）
 73
     1
 44
1.0
  0
LEADER
  5
9D2F
330
1F
100
AcDbEntity
  8
0
 62
     0
 48
0.5
100
AcDbLeader
  3
ISO-25
 40
6.0
 76
     3
 10
274.088906277406
 20
998.9256654116658
 30
0.0
 10
299.017333739531
 20
946.3089586092761
 30
0.0
 10
300.4268824748553
 20
946.3089586092761
 30
0.0
213
0.0
223
-3.0
233
0.0
1001
ACAD
1000
DSTYLE
1002
{
1070
   147
1040
3.0
1070
    77
1070
     0
1002
}
  0
MTEXT
  5
9D30
330
1F
100
AcDbEntity
  8
0
 62
     0
 48
0.5
100
AcDbMText
 10
302.8306520627577
 20
949.6862608061089
 30
0.0
 40
6.0
 41
0.0
 71
     1
 72
     1
  1
中間貫通部\P（孔径%%c8～12）
 73
     1
 44
1.0
  0
LINE
  5
A117
330
1F
100
AcDbEntity
  8
0
 62
     0
 48
0.5
100
AcDbLine
 10
422.559637000792
 20
950.507853288934
 30
0.0
 11
422.559637000792
 21
946.707853288934
 31
0.0
  0
LINE
  5
A134
330
1F
100
AcDbEntity
  8
0
 62
     0
 48
0.5
100
AcDbLine
 10
-25.11109372259386
 20
1086.406727460657
 30
0.0
 11
-25.11109372259386
 21
1082.606727460657
 31
0.0
  0
LINE
  5
A15C
330
1F
100
AcDbEntity
  8
0
 62
     0
 48
0.3
100
AcDbLine
 10
424.1471191944881
 20
916.8078532889348
 30
0.0
 11
422.7596370007921
 21
916.8078532889348
 31
0.0
  0
LINE
  5
A15D
330
1F
100
AcDbEntity
  8
0
 62
     0
 48
0.3
100
AcDbLine
 10
424.1471191944881
 20
913.8078532889348
 30
0.0
 11
422.7596370007921
 21
913.8078532889348
 31
0.0
  0
LINE
  5
A15E
330
1F
100
AcDbEntity
  8
0
 62
     0
 48
0.3
100
AcDbLine
 10
422.7596370007921
 20
912.8078532889347
 30
0.0
 11
424.1471191944881
 21
912.8078532889347
 31
0.0
  0
LINE
  5
A15F
330
1F
100
AcDbEntity
  8
0
 62
     0
 48
0.3
100
AcDbLine
 10
424.1471191944881
 20
915.8078532889348
 30
0.0
 11
422.7596370007921
 21
915.8078532889348
 31
0.0
  0
LINE
  5
A167
330
1F
100
AcDbEntity
  8
0
 62
     0
 48
0.3
100
AcDbLine
 10
422.559637000792
 20
916.8078532889348
 30
0.0
 11
422.559637000792
 21
912.8078532889347
 31
0.0
  0
LINE
  5
A169
330
1F
100
AcDbEntity
  8
0
 62
     0
 48
0.5
100
AcDbLine
 10
422.559637000792
 20
916.7078532889341
 30
0.0
 11
422.559637000792
 21
912.9078532889339
 31
0.0
  0
LINE
  5
A16A
330
1F
100
AcDbEntity
  8
0
100
AcDbLine
 10
422.7596370007921
 20
915.8078532889348
 30
0.0
 11
422.559637000792
 21
915.8078532889348
 31
0.0
  0
LINE
  5
A16B
330
1F
100
AcDbEntity
  8
0
100
AcDbLine
 10
422.7596370007921
 20
913.8078532889348
 30
0.0
 11
422.559637000792
 21
913.8078532889348
 31
0.0
  0
LINE
  5
A16C
330
1F
100
AcDbEntity
  8
0
100
AcDbLine
 10
422.7596370007921
 20
912.8078532889347
 30
0.0
 11
422.559637000792
 21
912.8078532889347
 31
0.0
  0
LINE
  5
A16D
330
1F
100
AcDbEntity
  8
0
100
AcDbLine
 10
422.7596370007921
 20
916.8078532889348
 30
0.0
 11
422.559637000792
 21
916.8078532889348
 31
0.0
  0
LINE
  5
A16E
330
1F
100
AcDbEntity
  8
0
 62
     0
 48
0.3
100
AcDbLine
 10
424.2596370007921
 20
913.2868472742092
 30
0.0
 11
424.2596370007921
 21
916.3154420181376
 31
0.0
  0
LINE
  5
A16F
330
1F
100
AcDbEntity
  8
0
 62
     0
 48
0.3
100
AcDbLine
 10
424.2596370007921
 20
916.2881265194426
 30
0.0
 11
424.2596370007921
 21
915.8078532889348
 31
0.0
  0
ARC
  5
A170
330
1F
100
AcDbEntity
  8
0
 62
     0
 48
0.3
100
AcDbCircle
 10
423.1153469818291
 20
916.3078533216237
 30
0.0
 40
1.146539940593713
100
AcDbArc
 50
334.1450295252206
 51
25.85497047477932
  0
LINE
  5
A171
330
1F
100
AcDbEntity
  8
0
 62
     0
 48
0.3
100
AcDbLine
 10
424.2596370007921
 20
915.8078532889348
 30
0.0
 11
424.2596370007921
 21
914.8078532889348
 31
0.0
  0
ARC
  5
A172
330
1F
100
AcDbEntity
  8
0
 62
     0
 48
0.3
100
AcDbCircle
 10
419.7596370007921
 20
914.8078532889348
 30
0.0
 40
4.5
100
AcDbArc
 50
347.160411228867
 51
12.83958840690441
  0
LINE
  5
A173
330
1F
100
AcDbEntity
  8
0
 62
     0
 48
0.3
100
AcDbLine
 10
424.2596370007921
 20
914.8078532889348
 30
0.0
 11
424.2596370007921
 21
913.8078532889348
 31
0.0
  0
ARC
  5
A174
330
1F
100
AcDbEntity
  8
0
 62
     0
 48
0.3
100
AcDbCircle
 10
423.1626270189656
 20
913.3078532889348
 30
0.0
 40
1.104185135891991
100
AcDbArc
 50
333.075075309887
 51
26.924924690113
  0
LINE
  5
A375
330
1F
100
AcDbEntity
  8
0
 62
     0
 48
0.5
100
AcDbLine
 10
-28.19505835403208
 20
1197.792130709261
 30
0.0
 11
-28.19505835403208
 21
1295.97890628122
 31
0.0
  0
LINE
  5
A376
330
1F
100
AcDbEntity
  8
0
 62
     0
 48
0.5
100
AcDbLine
 10
-20.19505835403197
 20
1197.792130709261
 30
0.0
 11
-20.19505835403197
 21
1295.97890628122
 31
0.0
  0
LINE
  5
A377
330
1F
100
AcDbEntity
  8
0
 62
     0
 48
0.5
100
AcDbLine
 10
356.8847044508879
 20
1295.978906281219
 30
0.0
 11
356.8847044508879
 21
1227.177479371363
 31
0.0
  0
LINE
  5
A378
330
1F
100
AcDbEntity
  8
0
 62
     0
 48
0.5
100
AcDbLine
 10
364.884704450888
 20
1295.978906281219
 30
0.0
 11
364.884704450888
 21
1197.79213070926
 31
0.0
  0
LINE
  5
A4C1
330
1F
100
AcDbEntity
  8
Object
 62
     0
 48
0.5
100
AcDbLine
 10
-7.327563454385241
 20
1240.567647990048
 30
0.0
 11
-7.327563454385241
 21
1246.409847990048
 31
0.0
  0
LINE
  5
A4C2
330
1F
100
AcDbEntity
  8
Object
 62
     0
 48
0.5
100
AcDbLine
 10
-9.200063454385242
 20
1252.252047990048
 30
0.0
 11
-9.200063454385242
 21
1240.567647990048
 31
0.0
  0
LINE
  5
A4C4
330
1F
100
AcDbEntity
  8
Object
 62
     0
 48
0.5
100
AcDbLine
 10
-9.200063454385242
 20
1240.567647990048
 30
0.0
 11
-9.050263454385207
 21
1240.417847990048
 31
0.0
  0
LINE
  5
A4C5
330
1F
100
AcDbEntity
  8
Object
 62
     0
 48
0.5
100
AcDbLine
 10
-7.327563454385241
 20
1240.567647990048
 30
0.0
 11
-7.477363454385191
 21
1240.417847990048
 31
0.0
  0
LINE
  5
A4C6
330
1F
100
AcDbEntity
  8
Object
 62
     0
 48
0.5
100
AcDbLine
 10
-9.050263454385207
 20
1240.417847990048
 30
0.0
 11
-7.477363454385191
 21
1240.417847990048
 31
0.0
  0
LINE
  5
A4C9
330
1F
100
AcDbEntity
  8
Object
 62
     0
 48
0.5
100
AcDbLine
 10
-7.327563454385241
 20
1246.409847990048
 30
0.0
 11
-7.327563454385241
 21
1252.252047990048
 31
0.0
  0
LINE
  5
A4CA
330
1F
100
AcDbEntity
  8
Object
 62
     0
 48
0.5
100
AcDbLine
 10
-7.327563454385241
 20
1247.961342291133
 30
0.0
 11
-9.200063454385242
 21
1246.409847990048
 31
0.0
  0
LINE
  5
A4CB
330
1F
100
AcDbEntity
  8
Object
 62
     0
 48
0.5
100
AcDbLine
 10
-9.050263454385293
 20
1252.401847990048
 30
0.0
 11
-9.200063454385242
 21
1252.252047990048
 31
0.0
  0
LINE
  5
A4CC
330
1F
100
AcDbEntity
  8
Object
 62
     0
 48
0.5
100
AcDbLine
 10
-7.477363454385191
 20
1252.401847990048
 30
0.0
 11
-7.327563454385241
 21
1252.252047990048
 31
0.0
  0
LINE
  5
A4CD
330
1F
100
AcDbEntity
  8
Object
 62
     0
 48
0.5
100
AcDbLine
 10
-7.477363454385191
 20
1252.401847990048
 30
0.0
 11
-9.050263454385293
 21
1252.401847990048
 31
0.0
  0
MTEXT
  5
A8CD
330
1F
100
AcDbEntity
  8
0
 62
     0
 48
0.5
100
AcDbMText
 10
3.056952764979541
 20
1227.451403195034
 30
0.0
 40
6.0
 41
0.0
 71
     1
 72
     1
  1
端子金具（長さ調整可）
 73
     1
 44
1.0
  0
MTEXT
  5
A8CE
330
1F
100
AcDbEntity
  8
0
 62
     0
 48
0.5
100
AcDbMText
 10
257.8279032668342
 20
1227.451403195034
 30
0.0
 40
6.0
 41
0.0
 71
     1
 72
     1
  1
ネジスリーブ
 73
     1
 44
1.0
  0
MTEXT
  5
A8CF
330
1F
100
AcDbEntity
  8
0
 62
     0
 48
0.5
100
AcDbMText
 10
298.8331179942083
 20
1264.300167227971
 30
0.0
 40
6.0
 41
0.0
 71
     1
 72
     1
  1
スレッドスリーブ
 73
     1
 44
1.0
  0
MTEXT
  5
A8D0
330
1F
100
AcDbEntity
  8
0
 62
     0
 48
0.5
100
AcDbMText
 10
204.8853326257431
 20
1227.451403195034
 30
0.0
 40
6.0
 41
0.0
 71
     1
 72
     1
  1
防犯カバー
 73
     1
 44
1.0
  0
LINE
  5
A8E5
330
1F
100
AcDbEntity
  8
0
 62
     0
 48
0.5
100
AcDbLine
 10
124.8889062774061
 20
1150.202732824258
 30
0.0
 11
124.8889062774061
 21
1150.522019579258
 31
0.0
  0
LINE
  5
A8E7
330
1F
100
AcDbEntity
  8
0
 62
     0
 48
0.5
100
AcDbLine
 10
123.2889062774061
 20
1150.202732824258
 30
0.0
 11
123.2889062774061
 21
1151.802732824258
 31
0.0
  0
LINE
  5
A8EC
330
1F
100
AcDbEntity
  8
0
 62
     0
 48
0.5
100
AcDbLine
 10
420.959637000792
 20
980.8905988744237
 30
0.0
 11
125.12383631032
 21
1151.691478038996
 31
0.0
  0
LINE
  5
A8ED
330
1F
100
AcDbEntity
  8
0
 62
     0
 48
0.5
100
AcDbLine
 10
420.1596370007921
 20
979.5049582283686
 30
0.0
 11
124.888906277406
 21
1149.979594095333
 31
0.0
  0
LINE
  5
A8EF
330
1F
100
AcDbEntity
  8
0
 62
     0
 48
0.5
100
AcDbLine
 10
124.888906277406
 20
1040.202732824258
 30
0.0
 11
124.888906277406
 21
1150.202732824258
 31
0.0
  0
LINE
  5
A8F0
330
1F
100
AcDbEntity
  8
0
 62
     0
 48
0.5
100
AcDbLine
 10
124.8889062774061
 20
1150.202732824258
 30
0.0
 11
124.888906277406
 21
1040.202732824258
 31
0.0
  0
LINE
  5
A8F1
330
1F
100
AcDbEntity
  8
0
 62
     0
 48
0.5
100
AcDbLine
 10
123.2889062774061
 20
1040.202732824258
 30
0.0
 11
123.2889062774061
 21
1150.202732824258
 31
0.0
  0
LINE
  5
A8F3
330
1F
100
AcDbEntity
  8
0
 62
     0
 48
0.5
100
AcDbLine
 10
123.2889062774061
 20
1151.802732824258
 30
0.0
 11
124.8889062774061
 21
1151.802732824258
 31
0.0
  0
LINE
  5
A8F5
330
1F
100
AcDbEntity
  8
0
 62
     0
 48
0.5
100
AcDbLine
 10
124.888906277406
 20
1149.979594095333
 30
0.0
 11
124.8889062774061
 21
1151.802732824258
 31
0.0
  0
LINE
  5
A8F6
330
1F
100
AcDbEntity
  8
0
 62
     0
 48
0.5
100
AcDbLine
 10
124.8889062774061
 20
1151.802732824258
 30
0.0
 11
125.12383631032
 21
1151.691478038996
 31
0.0
  0
LINE
  5
A8F7
330
1F
100
AcDbEntity
  8
0
 62
     0
 48
0.5
100
AcDbLine
 10
273.2889062774061
 20
1063.600192445814
 30
0.0
 11
273.2889062774061
 21
1064.300814147592
 31
0.0
  0
LINE
  5
A8F8
330
1F
100
AcDbEntity
  8
0
 62
     0
 48
0.5
100
AcDbLine
 10
420.1596370007921
 20
979.5049582283686
 30
0.0
 11
420.959637000792
 21
979.0249877171863
 31
0.0
  0
LINE
  5
A8FC
330
1F
100
AcDbEntity
  8
0
 62
     0
 48
0.5
100
AcDbLine
 10
420.959637000792
 20
980.8905988744237
 30
0.0
 11
422.5596370007921
 21
979.9620120031574
 31
0.0
  0
LINE
  5
A8FF
330
1F
100
AcDbEntity
  8
0
 62
     0
 48
0.5
100
AcDbLine
 10
420.9596370007921
 20
979.0249877171861
 30
0.0
 11
420.9596370007919
 21
870.4612736554718
 31
0.0
  0
LINE
  5
A900
330
1F
100
AcDbEntity
  8
0
 62
     0
 48
0.5
100
AcDbLine
 10
420.9596370007921
 20
979.0249877171861
 30
0.0
 11
422.5596370007921
 21
979.9620120031574
 31
0.0
  0
LINE
  5
ACAE
330
1F
100
AcDbEntity
  8
0
 62
     0
 48
0.5
100
AcDbLine
 10
586.4355553304281
 20
1019.259473531663
 30
0.0
 11
586.4355553304281
 21
1008.059473531663
 31
0.0
  0
LINE
  5
ACAF
330
1F
100
AcDbEntity
  8
0
 62
     0
 48
0.5
100
AcDbLine
 10
580.1355553304281
 20
1020.659473531663
 30
0.0
 11
580.1355553304281
 21
1006.659473531663
 31
0.0
  0
LINE
  5
ACB0
330
1F
100
AcDbEntity
  8
0
 62
     0
 48
0.5
100
AcDbLine
 10
582.3414502327907
 20
1006.659473531663
 30
0.0
 11
585.0355553304281
 21
1006.659473531663
 31
0.0
  0
LINE
  5
ACB1
330
1F
100
AcDbEntity
  8
0
 62
     0
 48
0.5
100
AcDbLine
 10
580.1355553304281
 20
1006.659473531663
 30
0.0
 11
582.3414502327907
 21
1006.659473531663
 31
0.0
  0
ARC
  5
ACB2
330
1F
100
AcDbEntity
  8
0
 62
     0
 48
0.5
100
AcDbCircle
 10
585.0355553304281
 20
1008.059473531663
 30
0.0
 40
1.399999999999999
100
AcDbArc
 50
270.0
 51
0.0
  0
LINE
  5
ACB3
330
1F
100
AcDbEntity
  8
0
 62
     0
 48
0.5
100
AcDbLine
 10
580.1355553304281
 20
1020.659473531663
 30
0.0
 11
585.0355553304281
 21
1020.659473531663
 31
0.0
  0
ARC
  5
ACB4
330
1F
100
AcDbEntity
  8
0
 62
     0
 48
0.5
100
AcDbCircle
 10
585.0355553304281
 20
1019.259473531663
 30
0.0
 40
1.399999999999999
100
AcDbArc
 50
0.0
 51
90.0
  0
LINE
  5
ACB5
330
1F
100
AcDbEntity
  8
0
 62
     0
 48
0.5
100
AcDbLine
 10
570.1314583880418
 20
1063.228531822832
 30
0.0
 11
570.1314583880418
 21
965.041756250873
 31
0.0
  0
LINE
  5
ACB6
330
1F
100
AcDbEntity
  8
0
 62
     0
 48
0.5
100
AcDbLine
 10
562.1314583880418
 20
1063.228531822832
 30
0.0
 11
562.1314583880417
 21
965.041756250873
 31
0.0
  0
MTEXT
  5
AE79
330
1F
100
AcDbEntity
  8
0
 62
     0
 48
0.5
100
AcDbMText
 10
-1.589114298955792
 20
1276.829706841692
 30
0.0
 40
6.0
 41
29.6755
 71
     1
 72
     5
  1
Ａ
 73
     1
 44
1.0
  0
LWPOLYLINE
  5
AE7A
330
1F
100
AcDbEntity
  8
0
 62
     0
 48
0.5
100
AcDbPolyline
 90
        4
 70
     1
 43
0.0
 10
-3.737961101940527
 20
1278.303196985435
 10
6.450525518190261
 20
1278.303196985435
 10
6.450525518190261
 20
1269.017371031506
 10
-3.737961101940527
 20
1269.017371031506
  0
MTEXT
  5
AE7B
330
1F
100
AcDbEntity
  8
0
 62
     0
 48
0.5
100
AcDbMText
 10
-17.17244329713094
 20
1134.132386584442
 30
0.0
 40
6.0
 41
29.6755
 71
     1
 72
     5
  1
Ａ
 73
     1
 44
1.0
  0
LWPOLYLINE
  5
AE7C
330
1F
100
AcDbEntity
  8
0
 62
     0
 48
0.5
100
AcDbPolyline
 90
        4
 70
     1
 43
0.0
 10
-19.32129010011567
 20
1135.605876728184
 10
-9.132803479984886
 20
1135.605876728184
 10
-9.132803479984886
 20
1126.320050774255
 10
-19.32129010011567
 20
1126.320050774255
  0
MTEXT
  5
AE7D
330
1F
100
AcDbEntity
  8
0
 62
     0
 48
0.5
100
AcDbMText
 10
333.865496445334
 20
1229.080542863895
 30
0.0
 40
6.0
 41
29.6755
 71
     1
 72
     5
  1
Ｂ
 73
     1
 44
1.0
  0
LWPOLYLINE
  5
AE7E
330
1F
100
AcDbEntity
  8
0
 62
     0
 48
0.5
100
AcDbPolyline
 90
        4
 70
     1
 43
0.0
 10
331.7166496423492
 20
1230.554033007638
 10
341.90513626248
 20
1230.554033007638
 10
341.90513626248
 20
1221.268207053709
 10
331.7166496423492
 20
1221.268207053709
  0
MTEXT
  5
AE7F
330
1F
100
AcDbEntity
  8
0
 62
     0
 48
0.5
100
AcDbMText
 10
109.3313637067244
 20
1134.132386584442
 30
0.0
 40
6.0
 41
29.6755
 71
     1
 72
     5
  1
Ｂ
 73
     1
 44
1.0
  0
LWPOLYLINE
  5
AE80
330
1F
100
AcDbEntity
  8
0
 62
     0
 48
0.5
100
AcDbPolyline
 90
        4
 70
     1
 43
0.0
 10
107.1825169037397
 20
1135.605876728184
 10
117.3710035238705
 20
1135.605876728184
 10
117.3710035238705
 20
1126.320050774255
 10
107.1825169037397
 20
1126.320050774255
  0
MTEXT
  5
AE82
330
1F
100
AcDbEntity
  8
0
 62
     0
 48
0.5
100
AcDbMText
 10
382.2142184883141
 20
1229.111005993326
 30
0.0
 40
6.0
 41
29.6755
 71
     1
 72
     5
  1
Ｃ
 73
     1
 44
1.0
  0
LWPOLYLINE
  5
AE83
330
1F
100
AcDbEntity
  8
0
 62
     0
 48
0.5
100
AcDbPolyline
 90
        4
 70
     1
 43
0.0
 10
380.0653716853294
 20
1230.584496137069
 10
390.2538583054602
 20
1230.584496137069
 10
390.2538583054602
 20
1221.29867018314
 10
380.0653716853294
 20
1221.29867018314
  0
LWPOLYLINE
  5
AE84
330
1F
100
AcDbEntity
  8
0
 62
     0
 48
0.5
100
AcDbPolyline
 90
        4
 70
     1
 43
0.0
 10
137.3233435677748
 20
1127.602283435392
 10
147.5118301879056
 20
1127.602283435392
 10
147.5118301879056
 20
1118.316457481463
 10
137.3233435677748
 20
1118.316457481463
  0
MTEXT
  5
AE85
330
1F
100
AcDbEntity
  8
0
 62
     0
 48
0.5
100
AcDbMText
 10
139.4721903707595
 20
1126.12879329165
 30
0.0
 40
6.0
 41
29.6755
 71
     1
 72
     5
  1
Ｃ
 73
     1
 44
1.0
  0
LWPOLYLINE
  5
AE86
330
1F
100
AcDbEntity
  8
0
 62
     0
 48
0.5
100
AcDbPolyline
 90
        4
 70
     1
 43
0.0
 10
545.1140179577655
 20
1041.073490766475
 10
555.3025045778963
 20
1041.073490766475
 10
555.3025045778963
 20
1031.787664812546
 10
545.1140179577655
 20
1031.787664812546
  0
MTEXT
  5
AE87
330
1F
100
AcDbEntity
  8
0
 62
     0
 48
0.5
100
AcDbMText
 10
547.2628647607503
 20
1039.600000622733
 30
0.0
 40
6.0
 41
29.6755
 71
     1
 72
     5
  1
Ｄ
 73
     1
 44
1.0
  0
LWPOLYLINE
  5
AE88
330
1F
100
AcDbEntity
  8
0
 62
     0
 48
0.5
100
AcDbPolyline
 90
        4
 70
     1
 43
0.0
 10
405.2817123330546
 20
970.0729991447238
 10
415.4701989531854
 20
970.0729991447238
 10
415.4701989531854
 20
960.7871731907945
 10
405.2817123330546
 20
960.7871731907945
  0
MTEXT
  5
AE89
330
1F
100
AcDbEntity
  8
0
 62
     0
 48
0.5
100
AcDbMText
 10
407.4305591360394
 20
968.5995090009809
 30
0.0
 40
6.0
 41
29.6755
 71
     1
 72
     5
  1
Ｄ
 73
     1
 44
1.0
  0
MTEXT
  5
AE8A
330
1F
100
AcDbEntity
  8
0
 62
     0
 48
0.5
100
AcDbMText
 10
448.9096665511985
 20
1238.930305724899
 30
0.0
 40
6.0
 41
0.0
 71
     1
 72
     1
  1
端子金具（長さ調整可）
 73
     1
 44
1.0
  0
MTEXT
  5
AE8B
330
1F
100
AcDbEntity
  8
0
 62
     0
 48
0.5
100
AcDbMText
 10
271.4987438612647
 20
1171.719402661427
 30
0.0
 40
6.0
 41
0.0
 71
     1
 72
     1
  1
防犯カバー
 73
     1
 44
1.0
  0
MTEXT
  5
AE8F
330
1F
100
AcDbEntity
  8
0
 62
     0
 48
0.5
100
AcDbMText
 10
597.2419951886577
 20
1049.486429269209
 30
0.0
 40
6.0
 41
0.0
 71
     1
 72
     1
  1
M6ボルト
 73
     1
 44
1.0
  0
LEADER
  5
AE90
330
1F
100
AcDbEntity
  8
0
 62
     0
 48
0.5
100
AcDbLeader
  3
ISO-25
 73
     0
 40
6.000000000000001
 41
56.62857142857142
 76
     3
 10
583.2868337623747
 20
1003.659473531663
 30
0.0
 10
598.3938200692887
 20
986.4615531959202
 30
0.0
 10
601.5978817035398
 20
986.4615531959202
 30
0.0
340
AE91
213
0.0
223
-3.0
233
0.0
1001
ACAD
1000
DSTYLE
1002
{
1070
   147
1040
3.0
1070
    77
1070
     0
1002
}
  0
MTEXT
  5
AE91
102
{ACAD_REACTORS
330
AE90
102
}
330
1F
100
AcDbEntity
  8
0
 62
     0
 48
0.5
100
AcDbMText
 10
604.5978817035397
 20
989.4615531959201
 30
0.0
 40
6.0
 41
0.0
 71
     1
 72
     1
  1
ボルト頭キャップ
 73
     1
 44
1.0
  0
MTEXT
  5
AF35
330
1F
100
AcDbEntity
  8
0
 62
     0
 48
0.5
100
AcDbMText
 10
177.3426465927439
 20
1075.803779044413
 30
0.0
 40
6.0
 41
70.4722
 71
     1
 72
     5
  1
4C-1N（傾斜張り）
 11
0.8660254037844383
 21
-0.5000000000000005
 31
0.0
 73
     1
 44
1.0
  0
MTEXT
  5
AF36
330
1F
100
AcDbEntity
  8
0
 62
     0
 48
0.5
100
AcDbMText
 10
33.34258277084581
 20
1105.638398481815
 30
0.0
 40
6.0
 41
0.0
 71
     1
 72
     5
  1
4A-1N
 73
     1
 44
1.0
  0
LINE
  5
B05B
330
1F
100
AcDbEntity
  8
0
 62
     0
 48
0.5
100
AcDbLine
 10
372.3278925677523
 20
1243.38985563211
 30
0.0
 11
372.2041073152319
 21
1249.388578597146
 31
0.0
  0
LINE
  5
B063
330
1F
100
AcDbEntity
  8
0
 62
     0
 48
0.5
100
AcDbLine
 10
371.813506619618
 20
1244.081850827186
 30
0.0
 11
372.3278925677523
 21
1243.38985563211
 31
0.0
  0
LINE
  5
B064
330
1F
100
AcDbEntity
  8
0
 62
     0
 48
0.5
100
AcDbLine
 10
372.8132937804575
 20
1244.102481702606
 30
0.0
 11
372.3278925677523
 21
1243.38985563211
 31
0.0
  0
LINE
  5
B065
330
1F
100
AcDbEntity
  8
0
 62
     0
 48
0.5
100
AcDbLine
 10
372.7184932633662
 20
1248.69658340207
 30
0.0
 11
372.2041073152319
 21
1249.388578597146
 31
0.0
  0
LINE
  5
B066
330
1F
100
AcDbEntity
  8
0
 62
     0
 48
0.5
100
AcDbLine
 10
371.7187061025269
 20
1248.675952526649
 30
0.0
 11
372.2041073152319
 21
1249.388578597146
 31
0.0
  0
LINE
  5
B067
330
1F
100
AcDbEntity
  8
0
 62
     0
 48
0.5
100
AcDbLine
 10
372.8132937804575
 20
1244.102481702606
 30
0.0
 11
372.7184932633662
 21
1248.69658340207
 31
0.0
  0
LINE
  5
B069
330
1F
100
AcDbEntity
  8
0
 62
     0
 48
0.5
100
AcDbLine
 10
371.3278925677523
 20
1243.38985563211
 30
0.0
 11
371.2041073152319
 21
1249.388578597146
 31
0.0
  0
LINE
  5
B06A
330
1F
100
AcDbEntity
  8
0
 62
     0
 48
0.5
100
AcDbLine
 10
371.8132937804575
 20
1244.102481702606
 30
0.0
 11
371.3278925677523
 21
1243.38985563211
 31
0.0
  0
LINE
  5
B06B
330
1F
100
AcDbEntity
  8
0
 62
     0
 48
0.5
100
AcDbLine
 10
370.813506619618
 20
1244.081850827186
 30
0.0
 11
371.3278925677523
 21
1243.38985563211
 31
0.0
  0
LINE
  5
B06C
330
1F
100
AcDbEntity
  8
0
 62
     0
 48
0.5
100
AcDbLine
 10
371.7184932633662
 20
1248.69658340207
 30
0.0
 11
371.2041073152319
 21
1249.388578597146
 31
0.0
  0
LINE
  5
B06D
330
1F
100
AcDbEntity
  8
0
 62
     0
 48
0.5
100
AcDbLine
 10
370.7187061025269
 20
1248.675952526649
 30
0.0
 11
371.2041073152319
 21
1249.388578597146
 31
0.0
  0
LINE
  5
B06E
330
1F
100
AcDbEntity
  8
0
 62
     0
 48
0.5
100
AcDbLine
 10
371.8132937804575
 20
1244.102481702606
 30
0.0
 11
371.7184932633662
 21
1248.69658340207
 31
0.0
  0
LINE
  5
B06F
330
1F
100
AcDbEntity
  8
0
 62
     0
 48
0.5
100
AcDbLine
 10
370.3278925677523
 20
1243.38985563211
 30
0.0
 11
370.2041073152319
 21
1249.388578597146
 31
0.0
  0
LINE
  5
B070
330
1F
100
AcDbEntity
  8
0
 62
     0
 48
0.5
100
AcDbLine
 10
370.8132937804575
 20
1244.102481702606
 30
0.0
 11
370.3278925677523
 21
1243.38985563211
 31
0.0
  0
LINE
  5
B071
330
1F
100
AcDbEntity
  8
0
 62
     0
 48
0.5
100
AcDbLine
 10
369.813506619618
 20
1244.081850827186
 30
0.0
 11
370.3278925677523
 21
1243.38985563211
 31
0.0
  0
LINE
  5
B072
330
1F
100
AcDbEntity
  8
0
 62
     0
 48
0.5
100
AcDbLine
 10
370.7184932633662
 20
1248.69658340207
 30
0.0
 11
370.2041073152319
 21
1249.388578597146
 31
0.0
  0
LINE
  5
B073
330
1F
100
AcDbEntity
  8
0
 62
     0
 48
0.5
100
AcDbLine
 10
369.7187061025269
 20
1248.675952526649
 30
0.0
 11
370.2041073152319
 21
1249.388578597146
 31
0.0
  0
LINE
  5
B074
330
1F
100
AcDbEntity
  8
0
 62
     0
 48
0.5
100
AcDbLine
 10
370.8132937804575
 20
1244.102481702606
 30
0.0
 11
370.7184932633662
 21
1248.69658340207
 31
0.0
  0
LINE
  5
B075
330
1F
100
AcDbEntity
  8
0
 62
     0
 48
0.5
100
AcDbLine
 10
369.3278925677523
 20
1243.38985563211
 30
0.0
 11
369.2041073152319
 21
1249.388578597146
 31
0.0
  0
LINE
  5
B076
330
1F
100
AcDbEntity
  8
0
 62
     0
 48
0.5
100
AcDbLine
 10
369.8132937804575
 20
1244.102481702606
 30
0.0
 11
369.3278925677523
 21
1243.38985563211
 31
0.0
  0
LINE
  5
B077
330
1F
100
AcDbEntity
  8
0
 62
     0
 48
0.5
100
AcDbLine
 10
368.813506619618
 20
1244.081850827186
 30
0.0
 11
369.3278925677523
 21
1243.38985563211
 31
0.0
  0
LINE
  5
B078
330
1F
100
AcDbEntity
  8
0
 62
     0
 48
0.5
100
AcDbLine
 10
369.7184932633662
 20
1248.69658340207
 30
0.0
 11
369.2041073152319
 21
1249.388578597146
 31
0.0
  0
LINE
  5
B079
330
1F
100
AcDbEntity
  8
0
 62
     0
 48
0.5
100
AcDbLine
 10
368.7187061025269
 20
1248.675952526649
 30
0.0
 11
369.2041073152319
 21
1249.388578597146
 31
0.0
  0
LINE
  5
B07A
330
1F
100
AcDbEntity
  8
0
 62
     0
 48
0.5
100
AcDbLine
 10
369.8132937804575
 20
1244.102481702606
 30
0.0
 11
369.7184932633662
 21
1248.69658340207
 31
0.0
  0
LINE
  5
B07B
330
1F
100
AcDbEntity
  8
0
 62
     0
 48
0.5
100
AcDbLine
 10
368.3278925677523
 20
1243.38985563211
 30
0.0
 11
368.2041073152319
 21
1249.388578597146
 31
0.0
  0
LINE
  5
B07C
330
1F
100
AcDbEntity
  8
0
 62
     0
 48
0.5
100
AcDbLine
 10
368.8132937804575
 20
1244.102481702606
 30
0.0
 11
368.3278925677523
 21
1243.38985563211
 31
0.0
  0
LINE
  5
B07D
330
1F
100
AcDbEntity
  8
0
 62
     0
 48
0.5
100
AcDbLine
 10
367.813506619618
 20
1244.081850827186
 30
0.0
 11
368.3278925677523
 21
1243.38985563211
 31
0.0
  0
LINE
  5
B07E
330
1F
100
AcDbEntity
  8
0
 62
     0
 48
0.5
100
AcDbLine
 10
368.7184932633662
 20
1248.69658340207
 30
0.0
 11
368.2041073152319
 21
1249.388578597146
 31
0.0
  0
LINE
  5
B07F
330
1F
100
AcDbEntity
  8
0
 62
     0
 48
0.5
100
AcDbLine
 10
367.7187061025269
 20
1248.675952526649
 30
0.0
 11
368.2041073152319
 21
1249.388578597146
 31
0.0
  0
LINE
  5
B080
330
1F
100
AcDbEntity
  8
0
 62
     0
 48
0.5
100
AcDbLine
 10
368.8132937804575
 20
1244.102481702606
 30
0.0
 11
368.7184932633662
 21
1248.69658340207
 31
0.0
  0
LINE
  5
B081
330
1F
100
AcDbEntity
  8
0
 62
     0
 48
0.5
100
AcDbLine
 10
367.3278925677523
 20
1243.38985563211
 30
0.0
 11
367.2041073152319
 21
1249.388578597146
 31
0.0
  0
LINE
  5
B082
330
1F
100
AcDbEntity
  8
0
 62
     0
 48
0.5
100
AcDbLine
 10
367.8132937804575
 20
1244.102481702606
 30
0.0
 11
367.3278925677523
 21
1243.38985563211
 31
0.0
  0
LINE
  5
B083
330
1F
100
AcDbEntity
  8
0
 62
     0
 48
0.5
100
AcDbLine
 10
366.813506619618
 20
1244.081850827186
 30
0.0
 11
367.3278925677523
 21
1243.38985563211
 31
0.0
  0
LINE
  5
B084
330
1F
100
AcDbEntity
  8
0
 62
     0
 48
0.5
100
AcDbLine
 10
367.7184932633662
 20
1248.69658340207
 30
0.0
 11
367.2041073152319
 21
1249.388578597146
 31
0.0
  0
LINE
  5
B085
330
1F
100
AcDbEntity
  8
0
 62
     0
 48
0.5
100
AcDbLine
 10
366.7187061025269
 20
1248.675952526649
 30
0.0
 11
367.2041073152319
 21
1249.388578597146
 31
0.0
  0
LINE
  5
B086
330
1F
100
AcDbEntity
  8
0
 62
     0
 48
0.5
100
AcDbLine
 10
367.8132937804575
 20
1244.102481702606
 30
0.0
 11
367.7184932633662
 21
1248.69658340207
 31
0.0
  0
LINE
  5
B087
330
1F
100
AcDbEntity
  8
0
 62
     0
 48
0.5
100
AcDbLine
 10
366.3278925677524
 20
1243.38985563211
 30
0.0
 11
366.2041073152319
 21
1249.388578597146
 31
0.0
  0
LINE
  5
B088
330
1F
100
AcDbEntity
  8
0
 62
     0
 48
0.5
100
AcDbLine
 10
366.8132937804575
 20
1244.102481702606
 30
0.0
 11
366.3278925677524
 21
1243.38985563211
 31
0.0
  0
LINE
  5
B089
330
1F
100
AcDbEntity
  8
0
 62
     0
 48
0.5
100
AcDbLine
 10
365.813506619618
 20
1244.081850827186
 30
0.0
 11
366.3278925677524
 21
1243.38985563211
 31
0.0
  0
LINE
  5
B08A
330
1F
100
AcDbEntity
  8
0
 62
     0
 48
0.5
100
AcDbLine
 10
366.7184932633662
 20
1248.69658340207
 30
0.0
 11
366.2041073152319
 21
1249.388578597146
 31
0.0
  0
LINE
  5
B08B
330
1F
100
AcDbEntity
  8
0
 62
     0
 48
0.5
100
AcDbLine
 10
365.7187061025269
 20
1248.675952526649
 30
0.0
 11
366.2041073152319
 21
1249.388578597146
 31
0.0
  0
LINE
  5
B08C
330
1F
100
AcDbEntity
  8
0
 62
     0
 48
0.5
100
AcDbLine
 10
366.8132937804575
 20
1244.102481702606
 30
0.0
 11
366.7184932633662
 21
1248.69658340207
 31
0.0
  0
LINE
  5
B08D
330
1F
100
AcDbEntity
  8
0
 62
     0
 48
0.5
100
AcDbLine
 10
365.3278925677523
 20
1243.38985563211
 30
0.0
 11
365.2041073152319
 21
1249.388578597146
 31
0.0
  0
LINE
  5
B08E
330
1F
100
AcDbEntity
  8
0
 62
     0
 48
0.5
100
AcDbLine
 10
365.8132937804575
 20
1244.102481702606
 30
0.0
 11
365.3278925677523
 21
1243.38985563211
 31
0.0
  0
LINE
  5
B08F
330
1F
100
AcDbEntity
  8
0
 62
     0
 48
0.5
100
AcDbLine
 10
364.884704450888
 20
1243.986069522667
 30
0.0
 11
365.3278925677523
 21
1243.38985563211
 31
0.0
  0
LINE
  5
B090
330
1F
100
AcDbEntity
  8
0
 62
     0
 48
0.5
100
AcDbLine
 10
365.7184932633662
 20
1248.69658340207
 30
0.0
 11
365.2041073152319
 21
1249.388578597146
 31
0.0
  0
LINE
  5
B091
330
1F
100
AcDbEntity
  8
0
 62
     0
 48
0.5
100
AcDbLine
 10
364.884704450888
 20
1248.919657625865
 30
0.0
 11
365.2041073152319
 21
1249.388578597146
 31
0.0
  0
LINE
  5
B092
330
1F
100
AcDbEntity
  8
0
 62
     0
 48
0.5
100
AcDbLine
 10
365.8132937804575
 20
1244.102481702606
 30
0.0
 11
365.7184932633662
 21
1248.69658340207
 31
0.0
  0
LINE
  5
B0BF
330
1F
100
AcDbEntity
  8
0
 62
     0
 48
0.5
100
AcDbLine
 10
356.813506619618
 20
1244.081850827186
 30
0.0
 11
356.8847044508879
 21
1243.986069522667
 31
0.0
  0
LINE
  5
B0C1
330
1F
100
AcDbEntity
  8
0
 62
     0
 48
0.5
100
AcDbLine
 10
356.7187061025269
 20
1248.675952526649
 30
0.0
 11
356.8847044508879
 21
1248.919657625865
 31
0.0
  0
LINE
  5
B0C3
330
1F
100
AcDbEntity
  8
0
 62
     0
 48
0.5
100
AcDbLine
 10
356.3278925677523
 20
1243.38985563211
 30
0.0
 11
356.2041073152319
 21
1249.388578597146
 31
0.0
  0
LINE
  5
B0C4
330
1F
100
AcDbEntity
  8
0
 62
     0
 48
0.5
100
AcDbLine
 10
356.8132937804575
 20
1244.102481702606
 30
0.0
 11
356.3278925677523
 21
1243.38985563211
 31
0.0
  0
LINE
  5
B0C5
330
1F
100
AcDbEntity
  8
0
 62
     0
 48
0.5
100
AcDbLine
 10
355.813506619618
 20
1244.081850827186
 30
0.0
 11
356.3278925677523
 21
1243.38985563211
 31
0.0
  0
LINE
  5
B0C6
330
1F
100
AcDbEntity
  8
0
 62
     0
 48
0.5
100
AcDbLine
 10
356.7184932633662
 20
1248.69658340207
 30
0.0
 11
356.2041073152319
 21
1249.388578597146
 31
0.0
  0
LINE
  5
B0C7
330
1F
100
AcDbEntity
  8
0
 62
     0
 48
0.5
100
AcDbLine
 10
355.7187061025269
 20
1248.675952526649
 30
0.0
 11
356.2041073152319
 21
1249.388578597146
 31
0.0
  0
LINE
  5
B0C8
330
1F
100
AcDbEntity
  8
0
 62
     0
 48
0.5
100
AcDbLine
 10
356.8132937804575
 20
1244.102481702606
 30
0.0
 11
356.7184932633662
 21
1248.69658340207
 31
0.0
  0
LINE
  5
B0C9
330
1F
100
AcDbEntity
  8
0
 62
     0
 48
0.5
100
AcDbLine
 10
355.3278925677523
 20
1243.38985563211
 30
0.0
 11
355.2041073152319
 21
1249.388578597146
 31
0.0
  0
LINE
  5
B0CA
330
1F
100
AcDbEntity
  8
0
 62
     0
 48
0.5
100
AcDbLine
 10
355.8132937804575
 20
1244.102481702606
 30
0.0
 11
355.3278925677523
 21
1243.38985563211
 31
0.0
  0
LINE
  5
B0CB
330
1F
100
AcDbEntity
  8
0
 62
     0
 48
0.5
100
AcDbLine
 10
354.813506619618
 20
1244.081850827186
 30
0.0
 11
355.3278925677523
 21
1243.38985563211
 31
0.0
  0
LINE
  5
B0CC
330
1F
100
AcDbEntity
  8
0
 62
     0
 48
0.5
100
AcDbLine
 10
355.7184932633662
 20
1248.69658340207
 30
0.0
 11
355.2041073152319
 21
1249.388578597146
 31
0.0
  0
LINE
  5
B0CD
330
1F
100
AcDbEntity
  8
0
 62
     0
 48
0.5
100
AcDbLine
 10
354.7187061025269
 20
1248.675952526649
 30
0.0
 11
355.2041073152319
 21
1249.388578597146
 31
0.0
  0
LINE
  5
B0CE
330
1F
100
AcDbEntity
  8
0
 62
     0
 48
0.5
100
AcDbLine
 10
355.8132937804575
 20
1244.102481702606
 30
0.0
 11
355.7184932633662
 21
1248.69658340207
 31
0.0
  0
LINE
  5
B0CF
330
1F
100
AcDbEntity
  8
0
 62
     0
 48
0.5
100
AcDbLine
 10
354.3278925677523
 20
1243.38985563211
 30
0.0
 11
354.2041073152319
 21
1249.388578597146
 31
0.0
  0
LINE
  5
B0D0
330
1F
100
AcDbEntity
  8
0
 62
     0
 48
0.5
100
AcDbLine
 10
354.8132937804575
 20
1244.102481702606
 30
0.0
 11
354.3278925677523
 21
1243.38985563211
 31
0.0
  0
LINE
  5
B0D1
330
1F
100
AcDbEntity
  8
0
 62
     0
 48
0.5
100
AcDbLine
 10
353.813506619618
 20
1244.081850827186
 30
0.0
 11
354.3278925677523
 21
1243.38985563211
 31
0.0
  0
LINE
  5
B0D2
330
1F
100
AcDbEntity
  8
0
 62
     0
 48
0.5
100
AcDbLine
 10
354.7184932633662
 20
1248.69658340207
 30
0.0
 11
354.2041073152319
 21
1249.388578597146
 31
0.0
  0
LINE
  5
B0D3
330
1F
100
AcDbEntity
  8
0
 62
     0
 48
0.5
100
AcDbLine
 10
353.7187061025269
 20
1248.675952526649
 30
0.0
 11
354.2041073152319
 21
1249.388578597146
 31
0.0
  0
LINE
  5
B0D4
330
1F
100
AcDbEntity
  8
0
 62
     0
 48
0.5
100
AcDbLine
 10
354.8132937804575
 20
1244.102481702606
 30
0.0
 11
354.7184932633662
 21
1248.69658340207
 31
0.0
  0
LINE
  5
B0D5
330
1F
100
AcDbEntity
  8
0
 62
     0
 48
0.5
100
AcDbLine
 10
353.3278925677523
 20
1243.38985563211
 30
0.0
 11
353.2041073152319
 21
1249.388578597146
 31
0.0
  0
LINE
  5
B0D6
330
1F
100
AcDbEntity
  8
0
 62
     0
 48
0.5
100
AcDbLine
 10
353.8132937804575
 20
1244.102481702606
 30
0.0
 11
353.3278925677523
 21
1243.38985563211
 31
0.0
  0
LINE
  5
B0D7
330
1F
100
AcDbEntity
  8
0
 62
     0
 48
0.5
100
AcDbLine
 10
352.813506619618
 20
1244.081850827186
 30
0.0
 11
353.3278925677523
 21
1243.38985563211
 31
0.0
  0
LINE
  5
B0D8
330
1F
100
AcDbEntity
  8
0
 62
     0
 48
0.5
100
AcDbLine
 10
353.7184932633662
 20
1248.69658340207
 30
0.0
 11
353.2041073152319
 21
1249.388578597146
 31
0.0
  0
LINE
  5
B0D9
330
1F
100
AcDbEntity
  8
0
 62
     0
 48
0.5
100
AcDbLine
 10
352.7187061025269
 20
1248.675952526649
 30
0.0
 11
353.2041073152319
 21
1249.388578597146
 31
0.0
  0
LINE
  5
B0DA
330
1F
100
AcDbEntity
  8
0
 62
     0
 48
0.5
100
AcDbLine
 10
353.8132937804575
 20
1244.102481702606
 30
0.0
 11
353.7184932633662
 21
1248.69658340207
 31
0.0
  0
LINE
  5
B0DB
330
1F
100
AcDbEntity
  8
0
 62
     0
 48
0.5
100
AcDbLine
 10
352.3278925677523
 20
1243.38985563211
 30
0.0
 11
352.2041073152319
 21
1249.388578597146
 31
0.0
  0
LINE
  5
B0DC
330
1F
100
AcDbEntity
  8
0
 62
     0
 48
0.5
100
AcDbLine
 10
352.8132937804575
 20
1244.102481702606
 30
0.0
 11
352.3278925677523
 21
1243.38985563211
 31
0.0
  0
LINE
  5
B0DD
330
1F
100
AcDbEntity
  8
0
 62
     0
 48
0.5
100
AcDbLine
 10
351.813506619618
 20
1244.081850827186
 30
0.0
 11
352.3278925677523
 21
1243.38985563211
 31
0.0
  0
LINE
  5
B0DE
330
1F
100
AcDbEntity
  8
0
 62
     0
 48
0.5
100
AcDbLine
 10
352.7184932633662
 20
1248.69658340207
 30
0.0
 11
352.2041073152319
 21
1249.388578597146
 31
0.0
  0
LINE
  5
B0DF
330
1F
100
AcDbEntity
  8
0
 62
     0
 48
0.5
100
AcDbLine
 10
351.7187061025269
 20
1248.675952526649
 30
0.0
 11
352.2041073152319
 21
1249.388578597146
 31
0.0
  0
LINE
  5
B0E0
330
1F
100
AcDbEntity
  8
0
 62
     0
 48
0.5
100
AcDbLine
 10
352.8132937804575
 20
1244.102481702606
 30
0.0
 11
352.7184932633662
 21
1248.69658340207
 31
0.0
  0
LINE
  5
B0E1
330
1F
100
AcDbEntity
  8
0
 62
     0
 48
0.5
100
AcDbLine
 10
351.3278925677523
 20
1243.38985563211
 30
0.0
 11
351.2041073152319
 21
1249.388578597146
 31
0.0
  0
LINE
  5
B0E2
330
1F
100
AcDbEntity
  8
0
 62
     0
 48
0.5
100
AcDbLine
 10
351.8132937804575
 20
1244.102481702606
 30
0.0
 11
351.3278925677523
 21
1243.38985563211
 31
0.0
  0
LINE
  5
B0E3
330
1F
100
AcDbEntity
  8
0
 62
     0
 48
0.5
100
AcDbLine
 10
350.813506619618
 20
1244.081850827186
 30
0.0
 11
351.3278925677523
 21
1243.38985563211
 31
0.0
  0
LINE
  5
B0E4
330
1F
100
AcDbEntity
  8
0
 62
     0
 48
0.5
100
AcDbLine
 10
351.7184932633662
 20
1248.69658340207
 30
0.0
 11
351.2041073152319
 21
1249.388578597146
 31
0.0
  0
LINE
  5
B0E5
330
1F
100
AcDbEntity
  8
0
 62
     0
 48
0.5
100
AcDbLine
 10
350.7187061025269
 20
1248.675952526649
 30
0.0
 11
351.2041073152319
 21
1249.388578597146
 31
0.0
  0
LINE
  5
B0E6
330
1F
100
AcDbEntity
  8
0
 62
     0
 48
0.5
100
AcDbLine
 10
351.8132937804575
 20
1244.102481702606
 30
0.0
 11
351.7184932633662
 21
1248.69658340207
 31
0.0
  0
LINE
  5
B0E7
330
1F
100
AcDbEntity
  8
0
 62
     0
 48
0.5
100
AcDbLine
 10
350.3278925677523
 20
1243.38985563211
 30
0.0
 11
350.2041073152319
 21
1249.388578597146
 31
0.0
  0
LINE
  5
B0E8
330
1F
100
AcDbEntity
  8
0
 62
     0
 48
0.5
100
AcDbLine
 10
350.8132937804575
 20
1244.102481702606
 30
0.0
 11
350.3278925677523
 21
1243.38985563211
 31
0.0
  0
LINE
  5
B0E9
330
1F
100
AcDbEntity
  8
0
 62
     0
 48
0.5
100
AcDbLine
 10
349.813506619618
 20
1244.081850827186
 30
0.0
 11
350.3278925677523
 21
1243.38985563211
 31
0.0
  0
LINE
  5
B0EA
330
1F
100
AcDbEntity
  8
0
 62
     0
 48
0.5
100
AcDbLine
 10
350.7184932633662
 20
1248.69658340207
 30
0.0
 11
350.2041073152319
 21
1249.388578597146
 31
0.0
  0
LINE
  5
B0EB
330
1F
100
AcDbEntity
  8
0
 62
     0
 48
0.5
100
AcDbLine
 10
349.7187061025269
 20
1248.675952526649
 30
0.0
 11
350.2041073152319
 21
1249.388578597146
 31
0.0
  0
LINE
  5
B0EC
330
1F
100
AcDbEntity
  8
0
 62
     0
 48
0.5
100
AcDbLine
 10
350.8132937804575
 20
1244.102481702606
 30
0.0
 11
350.7184932633662
 21
1248.69658340207
 31
0.0
  0
LINE
  5
B0ED
330
1F
100
AcDbEntity
  8
0
 62
     0
 48
0.5
100
AcDbLine
 10
349.3278925677523
 20
1243.38985563211
 30
0.0
 11
349.2041073152319
 21
1249.388578597146
 31
0.0
  0
LINE
  5
B0EE
330
1F
100
AcDbEntity
  8
0
 62
     0
 48
0.5
100
AcDbLine
 10
349.8132937804575
 20
1244.102481702606
 30
0.0
 11
349.3278925677523
 21
1243.38985563211
 31
0.0
  0
LINE
  5
B0EF
330
1F
100
AcDbEntity
  8
0
 62
     0
 48
0.5
100
AcDbLine
 10
348.813506619618
 20
1244.081850827186
 30
0.0
 11
349.3278925677523
 21
1243.38985563211
 31
0.0
  0
LINE
  5
B0F0
330
1F
100
AcDbEntity
  8
0
 62
     0
 48
0.5
100
AcDbLine
 10
349.7184932633662
 20
1248.69658340207
 30
0.0
 11
349.2041073152319
 21
1249.388578597146
 31
0.0
  0
LINE
  5
B0F1
330
1F
100
AcDbEntity
  8
0
 62
     0
 48
0.5
100
AcDbLine
 10
348.7187061025269
 20
1248.675952526649
 30
0.0
 11
349.2041073152319
 21
1249.388578597146
 31
0.0
  0
LINE
  5
B0F2
330
1F
100
AcDbEntity
  8
0
 62
     0
 48
0.5
100
AcDbLine
 10
349.8132937804575
 20
1244.102481702606
 30
0.0
 11
349.7184932633662
 21
1248.69658340207
 31
0.0
  0
LINE
  5
B0F8
330
1F
100
AcDbEntity
  8
0
 62
     0
 48
0.5
100
AcDbLine
 10
348.8132937804575
 20
1244.102481702606
 30
0.0
 11
348.7184932633662
 21
1248.69658340207
 31
0.0
  0
LINE
  5
B21F
330
1F
100
AcDbEntity
  8
Object
 62
     0
 48
0.3
100
AcDbLine
 10
263.2186248529555
 20
1252.409847990048
 30
0.0
 11
282.2186248529555
 21
1252.409847990048
 31
0.0
  0
LINE
  5
B220
330
1F
100
AcDbEntity
  8
Object
 62
     0
 48
0.3
100
AcDbLine
 10
282.2186248529555
 20
1240.409847990048
 30
0.0
 11
263.2186248529555
 21
1240.409847990048
 31
0.0
  0
LINE
  5
B221
330
1F
100
AcDbEntity
  8
Object
 62
     0
 48
0.3
100
AcDbLine
 10
263.2186248529555
 20
1240.409847990048
 30
0.0
 11
263.2186248529555
 21
1246.409847990048
 31
0.0
  0
LINE
  5
B222
330
1F
100
AcDbEntity
  8
Object
 62
     0
 48
0.3
100
AcDbLine
 10
263.2186248529555
 20
1246.409847990048
 30
0.0
 11
263.2186248529555
 21
1252.409847990048
 31
0.0
  0
CIRCLE
  5
B223
330
1F
100
AcDbEntity
  8
Object
 62
     0
 48
0.3
100
AcDbCircle
 10
280.7186248529556
 20
1246.409847990048
 30
0.0
 40
2.5
  0
LWPOLYLINE
  5
B224
330
1F
100
AcDbEntity
  8
PHANTOM
 62
     0
 48
0.3
100
AcDbPolyline
 90
        6
 70
     1
 43
0.0
 10
279.2186248529556
 20
1246.409847990048
 10
279.9686248529555
 20
1245.110809884372
 10
281.4686248529556
 20
1245.110809884372
 10
282.2186248529555
 20
1246.409847990048
 10
281.4686248529556
 20
1247.708886095725
 10
279.9686248529555
 20
1247.708886095725
  0
CIRCLE
  5
B225
330
1F
100
AcDbEntity
  8
Object
 62
     0
 48
0.3
100
AcDbCircle
 10
273.7186248529555
 20
1246.409847990048
 30
0.0
 40
2.5
  0
LWPOLYLINE
  5
B226
330
1F
100
AcDbEntity
  8
PHANTOM
 62
     0
 48
0.3
100
AcDbPolyline
 90
        6
 70
     1
 43
0.0
 10
265.419586747279
 20
1247.159847990048
 10
265.419586747279
 20
1245.659847990048
 10
266.7186248529556
 20
1244.909847990048
 10
268.0176629586323
 20
1245.659847990048
 10
268.0176629586323
 20
1247.159847990048
 10
266.7186248529556
 20
1247.909847990048
  0
CIRCLE
  5
B227
330
1F
100
AcDbEntity
  8
Object
 62
     0
 48
0.3
100
AcDbCircle
 10
266.7186248529556
 20
1246.409847990048
 30
0.0
 40
2.5
  0
LWPOLYLINE
  5
B228
330
1F
100
AcDbEntity
  8
PHANTOM
 62
     0
 48
0.3
100
AcDbPolyline
 90
        6
 70
     1
 43
0.0
 10
272.2697361135219
 20
1246.798076557702
 10
272.6579646811758
 20
1245.349187818268
 10
274.1068534206094
 20
1244.960959250615
 10
275.1675135923892
 20
1246.021619422394
 10
274.7792850247353
 20
1247.470508161828
 10
273.3303962853019
 20
1247.858736729482
  0
LINE
  5
B229
330
1F
100
AcDbEntity
  8
0
 62
     0
 48
0.3
100
AcDbLine
 10
287.2186248529556
 20
1246.409847990048
 30
0.0
 11
287.2186248529556
 21
1241.409847990048
 31
0.0
  0
LINE
  5
B22A
330
1F
100
AcDbEntity
  8
Object
 62
     0
 48
0.3
100
AcDbLine
 10
287.2186248529556
 20
1251.409847990048
 30
0.0
 11
287.2186248529556
 21
1240.809847990048
 31
0.0
  0
LINE
  5
B22B
330
1F
100
AcDbEntity
  8
Object
 62
     0
 48
0.3
100
AcDbLine
 10
290.2186248529556
 20
1252.009847990048
 30
0.0
 11
290.2186248529556
 21
1240.809847990048
 31
0.0
  0
LINE
  5
B22C
330
1F
100
AcDbEntity
  8
0
 62
     0
 48
0.3
100
AcDbLine
 10
287.2186248529556
 20
1241.409847990048
 30
0.0
 11
282.2186248529555
 21
1241.409847990048
 31
0.0
  0
LINE
  5
B22D
330
1F
100
AcDbEntity
  8
0
 62
     0
 48
0.3
100
AcDbLine
 10
282.2186248529555
 20
1241.409847990048
 30
0.0
 11
282.2186248529555
 21
1240.409847990048
 31
0.0
  0
LINE
  5
B22E
330
1F
100
AcDbEntity
  8
Object
 62
     0
 48
0.3
100
AcDbLine
 10
290.2186248529556
 20
1240.809847990048
 30
0.0
 11
287.2186248529556
 21
1240.809847990048
 31
0.0
  0
LINE
  5
B22F
330
1F
100
AcDbEntity
  8
0
 62
     0
 48
0.3
100
AcDbLine
 10
287.2186248529556
 20
1251.409847990048
 30
0.0
 11
282.2186248529555
 21
1251.409847990048
 31
0.0
  0
LINE
  5
B231
330
1F
100
AcDbEntity
  8
0
 62
     0
 48
0.3
100
AcDbLine
 10
282.2186248529555
 20
1251.409847990048
 30
0.0
 11
282.2186248529555
 21
1252.409847990048
 31
0.0
  0
LINE
  5
B232
330
1F
100
AcDbEntity
  8
Object
 62
     0
 48
0.3
100
AcDbLine
 10
287.2186248529556
 20
1252.009847990048
 30
0.0
 11
290.2186248529556
 21
1252.009847990048
 31
0.0
  0
LINE
  5
B233
330
1F
100
AcDbEntity
  8
Object
 62
     0
 48
0.3
100
AcDbLine
 10
287.2186248529556
 20
1246.409847990048
 30
0.0
 11
287.2186248529556
 21
1249.409847990048
 31
0.0
  0
LINE
  5
B234
330
1F
100
AcDbEntity
  8
Object
 62
     0
 48
0.3
100
AcDbLine
 10
290.2186248529556
 20
1246.409847990048
 30
0.0
 11
290.2186248529556
 21
1248.909847990048
 31
0.0
  0
LINE
  5
B235
330
1F
100
AcDbEntity
  8
Object
 62
     0
 48
0.3
100
AcDbLine
 10
290.2186248529556
 20
1248.909847990048
 30
0.0
 11
287.2186248529556
 21
1248.909847990048
 31
0.0
  0
LINE
  5
B236
330
1F
100
AcDbEntity
  8
Object
 62
     0
 48
0.3
100
AcDbLine
 10
290.2186248529556
 20
1248.909847990048
 30
0.0
 11
290.2186248529556
 21
1243.909847990048
 31
0.0
  0
LINE
  5
B237
330
1F
100
AcDbEntity
  8
Object
 62
     0
 48
0.3
100
AcDbLine
 10
290.2186248529556
 20
1243.909847990048
 30
0.0
 11
287.2186248529556
 21
1243.909847990048
 31
0.0
  0
LINE
  5
B238
330
1F
100
AcDbEntity
  8
Object
 62
     0
 48
0.3
100
AcDbLine
 10
287.2186248529556
 20
1246.409847990048
 30
0.0
 11
287.2186248529556
 21
1252.009847990048
 31
0.0
  0
LINE
  5
B239
330
1F
100
AcDbEntity
  8
0
 62
     0
 48
0.3
100
AcDbLine
 10
287.2186248529556
 20
1246.409847990048
 30
0.0
 11
287.2186248529556
 21
1251.409847990048
 31
0.0
  0
LINE
  5
B3B2
330
1F
100
AcDbEntity
  8
0
 62
     0
 48
0.5
100
AcDbLine
 10
511.8052917716327
 20
1019.595028610332
 30
0.0
 11
511.9047654725282
 21
1018.738550218032
 31
0.0
  0
LINE
  5
B3B3
330
1F
100
AcDbEntity
  8
0
 62
     0
 48
0.5
100
AcDbLine
 10
514.0202429652713
 20
1023.621037648182
 30
0.0
 11
514.7969257817501
 21
1023.995489322279
 31
0.0
  0
LINE
  5
B3B5
330
1F
100
AcDbEntity
  8
0
 62
     0
 48
0.5
100
AcDbLine
 10
520.9484461955467
 20
1019.621037648182
 30
0.0
 11
521.023779647166
 21
1019.657357155291
 31
0.0
  0
LINE
  5
B3CF
330
1F
100
AcDbEntity
  8
0
 62
     0
 48
0.5
100
AcDbLine
 10
520.9484461955467
 20
1019.621037648182
 30
0.0
 11
519.8484315146524
 21
1017.621594473195
 31
0.0
  0
LINE
  5
B3D0
330
1F
100
AcDbEntity
  8
0
 62
     0
 48
0.5
100
AcDbLine
 10
520.0824207917624
 20
1020.121037648182
 30
0.0
 11
517.8674695981237
 21
1016.095028610332
 31
0.0
  0
LINE
  5
B3D1
330
1F
100
AcDbEntity
  8
0
 62
     0
 48
0.5
100
AcDbLine
 10
518.6676113170997
 20
1015.576353896431
 30
0.0
 11
517.9669432990192
 21
1015.238550218032
 31
0.0
  0
LINE
  5
B3D2
330
1F
100
AcDbEntity
  8
0
 62
     0
 48
0.5
100
AcDbLine
 10
517.8674695981237
 20
1016.095028610332
 30
0.0
 11
517.9669432990192
 21
1015.238550218032
 31
0.0
  0
LINE
  5
B3D3
330
1F
100
AcDbEntity
  8
0
 62
     0
 48
0.5
100
AcDbLine
 10
520.9585773091369
 20
1019.639010929978
 30
0.0
 11
520.8591036082411
 21
1020.495489322279
 31
0.0
  0
LINE
  5
B3D4
330
1F
100
AcDbEntity
  8
0
 62
     0
 48
0.5
100
AcDbLine
 10
520.0824207917624
 20
1020.121037648182
 30
0.0
 11
520.8591036082411
 21
1020.495489322279
 31
0.0
  0
LINE
  5
B3D5
330
1F
100
AcDbEntity
  8
0
 62
     0
 48
0.5
100
AcDbLine
 10
520.8591036082411
 20
1020.495489322279
 30
0.0
 11
517.9669432990192
 21
1015.238550218032
 31
0.0
  0
LINE
  5
B3D6
330
1F
100
AcDbEntity
  8
0
 62
     0
 48
0.5
100
AcDbLine
 10
519.2163953879778
 20
1020.621037648182
 30
0.0
 11
517.0014441943392
 21
1016.595028610332
 31
0.0
  0
LINE
  5
B3D7
330
1F
100
AcDbEntity
  8
0
 62
     0
 48
0.5
100
AcDbLine
 10
517.8776007117135
 20
1016.113001892128
 30
0.0
 11
517.1009178952349
 21
1015.738550218032
 31
0.0
  0
LINE
  5
B3D8
330
1F
100
AcDbEntity
  8
0
 62
     0
 48
0.5
100
AcDbLine
 10
517.0014441943392
 20
1016.595028610332
 30
0.0
 11
517.1009178952349
 21
1015.738550218032
 31
0.0
  0
LINE
  5
B3D9
330
1F
100
AcDbEntity
  8
0
 62
     0
 48
0.5
100
AcDbLine
 10
520.0925519053523
 20
1020.139010929978
 30
0.0
 11
519.9930782044567
 21
1020.995489322279
 31
0.0
  0
LINE
  5
B3DA
330
1F
100
AcDbEntity
  8
0
 62
     0
 48
0.5
100
AcDbLine
 10
519.2163953879778
 20
1020.621037648182
 30
0.0
 11
519.9930782044567
 21
1020.995489322279
 31
0.0
  0
LINE
  5
B3DB
330
1F
100
AcDbEntity
  8
0
 62
     0
 48
0.5
100
AcDbLine
 10
519.9930782044567
 20
1020.995489322279
 30
0.0
 11
517.1009178952349
 21
1015.738550218032
 31
0.0
  0
LINE
  5
B3DC
330
1F
100
AcDbEntity
  8
0
 62
     0
 48
0.5
100
AcDbLine
 10
518.3503699841935
 20
1021.121037648182
 30
0.0
 11
516.1354187905547
 21
1017.095028610332
 31
0.0
  0
LINE
  5
B3DD
330
1F
100
AcDbEntity
  8
0
 62
     0
 48
0.5
100
AcDbLine
 10
517.0115753079292
 20
1016.613001892128
 30
0.0
 11
516.2348924914503
 21
1016.238550218032
 31
0.0
  0
LINE
  5
B3DE
330
1F
100
AcDbEntity
  8
0
 62
     0
 48
0.5
100
AcDbLine
 10
516.1354187905547
 20
1017.095028610332
 30
0.0
 11
516.2348924914503
 21
1016.238550218032
 31
0.0
  0
LINE
  5
B3DF
330
1F
100
AcDbEntity
  8
0
 62
     0
 48
0.5
100
AcDbLine
 10
519.226526501568
 20
1020.639010929978
 30
0.0
 11
519.1270528006723
 21
1021.495489322279
 31
0.0
  0
LINE
  5
B3E0
330
1F
100
AcDbEntity
  8
0
 62
     0
 48
0.5
100
AcDbLine
 10
518.3503699841935
 20
1021.121037648182
 30
0.0
 11
519.1270528006723
 21
1021.495489322279
 31
0.0
  0
LINE
  5
B3E1
330
1F
100
AcDbEntity
  8
0
 62
     0
 48
0.5
100
AcDbLine
 10
519.1270528006723
 20
1021.495489322279
 30
0.0
 11
516.2348924914503
 21
1016.238550218032
 31
0.0
  0
LINE
  5
B3E2
330
1F
100
AcDbEntity
  8
0
 62
     0
 48
0.5
100
AcDbLine
 10
516.1455499041446
 20
1017.113001892129
 30
0.0
 11
515.368867087666
 21
1016.738550218032
 31
0.0
  0
LINE
  5
B3E3
330
1F
100
AcDbEntity
  8
0
 62
     0
 48
0.5
100
AcDbLine
 10
518.3605010977835
 20
1021.139010929978
 30
0.0
 11
518.2610273968878
 21
1021.995489322279
 31
0.0
  0
LINE
  5
B3E4
330
1F
100
AcDbEntity
  8
0
 62
     0
 48
0.5
100
AcDbLine
 10
518.2610273968878
 20
1021.995489322279
 30
0.0
 11
515.368867087666
 21
1016.738550218032
 31
0.0
  0
LINE
  5
B3E5
330
1F
100
AcDbEntity
  8
0
 62
     0
 48
0.5
100
AcDbLine
 10
517.484344580409
 20
1021.621037648182
 30
0.0
 11
515.2693933867704
 21
1017.595028610332
 31
0.0
  0
LINE
  5
B3E6
330
1F
100
AcDbEntity
  8
0
 62
     0
 48
0.5
100
AcDbLine
 10
516.6183191766244
 20
1022.121037648182
 30
0.0
 11
514.4033679829858
 21
1018.095028610332
 31
0.0
  0
LINE
  5
B3E7
330
1F
100
AcDbEntity
  8
0
 62
     0
 48
0.5
100
AcDbLine
 10
515.2795245003603
 20
1017.613001892128
 30
0.0
 11
514.5028416838815
 21
1017.238550218032
 31
0.0
  0
LINE
  5
B3E8
330
1F
100
AcDbEntity
  8
0
 62
     0
 48
0.5
100
AcDbLine
 10
514.4033679829858
 20
1018.095028610332
 30
0.0
 11
514.5028416838815
 21
1017.238550218032
 31
0.0
  0
LINE
  5
B3E9
330
1F
100
AcDbEntity
  8
0
 62
     0
 48
0.5
100
AcDbLine
 10
517.4944756939989
 20
1021.639010929978
 30
0.0
 11
517.3950019931035
 21
1022.495489322279
 31
0.0
  0
LINE
  5
B3EA
330
1F
100
AcDbEntity
  8
0
 62
     0
 48
0.5
100
AcDbLine
 10
516.6183191766244
 20
1022.121037648182
 30
0.0
 11
517.3950019931035
 21
1022.495489322279
 31
0.0
  0
LINE
  5
B3EB
330
1F
100
AcDbEntity
  8
0
 62
     0
 48
0.5
100
AcDbLine
 10
517.3950019931035
 20
1022.495489322279
 30
0.0
 11
514.5028416838815
 21
1017.238550218032
 31
0.0
  0
LINE
  5
B3EC
330
1F
100
AcDbEntity
  8
0
 62
     0
 48
0.5
100
AcDbLine
 10
515.7522937728401
 20
1022.621037648182
 30
0.0
 11
513.5373425792015
 21
1018.595028610332
 31
0.0
  0
LINE
  5
B3ED
330
1F
100
AcDbEntity
  8
0
 62
     0
 48
0.5
100
AcDbLine
 10
514.4134990965758
 20
1018.113001892128
 30
0.0
 11
513.6368162800972
 21
1017.738550218032
 31
0.0
  0
LINE
  5
B3EE
330
1F
100
AcDbEntity
  8
0
 62
     0
 48
0.5
100
AcDbLine
 10
513.5373425792015
 20
1018.595028610332
 30
0.0
 11
513.6368162800972
 21
1017.738550218032
 31
0.0
  0
LINE
  5
B3EF
330
1F
100
AcDbEntity
  8
0
 62
     0
 48
0.5
100
AcDbLine
 10
516.6284502902146
 20
1022.139010929978
 30
0.0
 11
516.528976589319
 21
1022.995489322279
 31
0.0
  0
LINE
  5
B3F0
330
1F
100
AcDbEntity
  8
0
 62
     0
 48
0.5
100
AcDbLine
 10
515.7522937728401
 20
1022.621037648182
 30
0.0
 11
516.528976589319
 21
1022.995489322279
 31
0.0
  0
LINE
  5
B3F1
330
1F
100
AcDbEntity
  8
0
 62
     0
 48
0.5
100
AcDbLine
 10
516.528976589319
 20
1022.995489322279
 30
0.0
 11
513.6368162800972
 21
1017.738550218032
 31
0.0
  0
LINE
  5
B3F2
330
1F
100
AcDbEntity
  8
0
 62
     0
 48
0.5
100
AcDbLine
 10
514.8862683690556
 20
1023.121037648182
 30
0.0
 11
512.671317175417
 21
1019.095028610332
 31
0.0
  0
LINE
  5
B3F3
330
1F
100
AcDbEntity
  8
0
 62
     0
 48
0.5
100
AcDbLine
 10
513.5474736927915
 20
1018.613001892128
 30
0.0
 11
512.7707908763126
 21
1018.238550218032
 31
0.0
  0
LINE
  5
B3F4
330
1F
100
AcDbEntity
  8
0
 62
     0
 48
0.5
100
AcDbLine
 10
512.671317175417
 20
1019.095028610332
 30
0.0
 11
512.7707908763126
 21
1018.238550218032
 31
0.0
  0
LINE
  5
B3F5
330
1F
100
AcDbEntity
  8
0
 62
     0
 48
0.5
100
AcDbLine
 10
515.7624248864301
 20
1022.639010929978
 30
0.0
 11
515.6629511855344
 21
1023.495489322279
 31
0.0
  0
LINE
  5
B3F6
330
1F
100
AcDbEntity
  8
0
 62
     0
 48
0.5
100
AcDbLine
 10
514.8862683690556
 20
1023.121037648182
 30
0.0
 11
515.6629511855344
 21
1023.495489322279
 31
0.0
  0
LINE
  5
B3F7
330
1F
100
AcDbEntity
  8
0
 62
     0
 48
0.5
100
AcDbLine
 10
515.6629511855344
 20
1023.495489322279
 30
0.0
 11
512.7707908763126
 21
1018.238550218032
 31
0.0
  0
LINE
  5
B3F8
330
1F
100
AcDbEntity
  8
0
 62
     0
 48
0.5
100
AcDbLine
 10
512.6814482890069
 20
1019.113001892128
 30
0.0
 11
511.9047654725282
 21
1018.738550218032
 31
0.0
  0
LINE
  5
B3F9
330
1F
100
AcDbEntity
  8
0
 62
     0
 48
0.5
100
AcDbLine
 10
514.8963994826458
 20
1023.139010929978
 30
0.0
 11
514.7969257817501
 21
1023.995489322279
 31
0.0
  0
LINE
  5
B3FA
330
1F
100
AcDbEntity
  8
0
 62
     0
 48
0.5
100
AcDbLine
 10
514.7969257817501
 20
1023.995489322279
 30
0.0
 11
511.9047654725282
 21
1018.738550218032
 31
0.0
  0
LINE
  5
B3FB
330
1F
100
AcDbEntity
  8
0
 62
     0
 48
0.5
100
AcDbLine
 10
515.2693933867704
 20
1017.595028610332
 30
0.0
 11
515.368867087666
 21
1016.738550218032
 31
0.0
  0
LINE
  5
B3FC
330
1F
100
AcDbEntity
  8
0
 62
     0
 48
0.5
100
AcDbLine
 10
517.484344580409
 20
1021.621037648182
 30
0.0
 11
518.2610273968878
 21
1021.995489322279
 31
0.0
  0
LINE
  5
B3FD
330
1F
100
AcDbEntity
  8
0
 62
     0
 48
0.5
100
AcDbLine
 10
514.0202429652713
 20
1023.621037648182
 30
0.0
 11
511.8052917716327
 21
1019.595028610332
 31
0.0
  0
LINE
  5
B3FE
330
1F
100
AcDbEntity
  8
0
 62
     0
 48
0.5
100
AcDbLine
 10
513.1542175614868
 20
1024.121037648182
 30
0.0
 11
510.9392663678481
 21
1020.095028610332
 31
0.0
  0
LINE
  5
B3FF
330
1F
100
AcDbEntity
  8
0
 62
     0
 48
0.5
100
AcDbLine
 10
511.8154228852224
 20
1019.613001892129
 30
0.0
 11
511.0387400687439
 21
1019.238550218032
 31
0.0
  0
LINE
  5
B400
330
1F
100
AcDbEntity
  8
0
 62
     0
 48
0.5
100
AcDbLine
 10
510.9392663678481
 20
1020.095028610332
 30
0.0
 11
511.0387400687439
 21
1019.238550218032
 31
0.0
  0
LINE
  5
B401
330
1F
100
AcDbEntity
  8
0
 62
     0
 48
0.5
100
AcDbLine
 10
514.0303740788612
 20
1023.639010929978
 30
0.0
 11
513.9309003779656
 21
1024.495489322279
 31
0.0
  0
LINE
  5
B402
330
1F
100
AcDbEntity
  8
0
 62
     0
 48
0.5
100
AcDbLine
 10
513.1542175614868
 20
1024.121037648182
 30
0.0
 11
513.9309003779656
 21
1024.495489322279
 31
0.0
  0
LINE
  5
B403
330
1F
100
AcDbEntity
  8
0
 62
     0
 48
0.5
100
AcDbLine
 10
513.9309003779656
 20
1024.495489322279
 30
0.0
 11
511.0387400687439
 21
1019.238550218032
 31
0.0
  0
LINE
  5
B404
330
1F
100
AcDbEntity
  8
0
 62
     0
 48
0.5
100
AcDbLine
 10
513.0648749741813
 20
1024.995489322279
 30
0.0
 11
510.1727146649593
 21
1019.738550218032
 31
0.0
  0
LINE
  5
B405
330
1F
100
AcDbEntity
  8
0
 62
     0
 48
0.5
100
AcDbLine
 10
512.2881921577024
 20
1024.621037648182
 30
0.0
 11
513.0648749741813
 21
1024.995489322279
 31
0.0
  0
LINE
  5
B406
330
1F
100
AcDbEntity
  8
0
 62
     0
 48
0.5
100
AcDbLine
 10
513.1643486750768
 20
1024.139010929978
 30
0.0
 11
513.0648749741813
 21
1024.995489322279
 31
0.0
  0
LINE
  5
B407
330
1F
100
AcDbEntity
  8
0
 62
     0
 48
0.5
100
AcDbLine
 10
510.0732409640636
 20
1020.595028610332
 30
0.0
 11
510.1727146649593
 21
1019.738550218032
 31
0.0
  0
LINE
  5
B408
330
1F
100
AcDbEntity
  8
0
 62
     0
 48
0.5
100
AcDbLine
 10
510.9493974814381
 20
1020.113001892128
 30
0.0
 11
510.1727146649593
 21
1019.738550218032
 31
0.0
  0
LINE
  5
B409
330
1F
100
AcDbEntity
  8
0
 62
     0
 48
0.5
100
AcDbLine
 10
512.2881921577024
 20
1024.621037648182
 30
0.0
 11
510.0732409640636
 21
1020.595028610332
 31
0.0
  0
LINE
  5
B476
330
1F
100
AcDbEntity
  8
0
 62
     0
 48
0.5
100
AcDbLine
 10
-12.14765809548646
 20
1244.112797140309
 30
0.0
 11
-12.6330593081916
 21
1243.400171069812
 31
0.0
  0
LINE
  5
B477
330
1F
100
AcDbEntity
  8
0
 62
     0
 48
0.5
100
AcDbLine
 10
-12.14765809548646
 20
1244.112797140309
 30
0.0
 11
-12.2424586125777
 21
1248.706898839772
 31
0.0
  0
LINE
  5
B47A
330
1F
100
AcDbEntity
  8
0
 62
     0
 48
0.5
100
AcDbLine
 10
-20.19505835403197
 20
1248.755544645937
 30
0.0
 11
-19.75684456071201
 21
1249.398894034849
 31
0.0
  0
LINE
  5
B47B
330
1F
100
AcDbEntity
  8
0
 62
     0
 48
0.5
100
AcDbLine
 10
-20.14744525632591
 20
1244.092166264889
 30
0.0
 11
-19.6330593081916
 21
1243.400171069812
 31
0.0
  0
LINE
  5
B47C
330
1F
100
AcDbEntity
  8
0
 62
     0
 48
0.5
100
AcDbLine
 10
-19.14765809548646
 20
1244.112797140309
 30
0.0
 11
-19.2424586125777
 21
1248.706898839772
 31
0.0
  0
LINE
  5
B47D
330
1F
100
AcDbEntity
  8
0
 62
     0
 48
0.5
100
AcDbLine
 10
-19.2424586125777
 20
1248.706898839772
 30
0.0
 11
-19.75684456071201
 21
1249.398894034849
 31
0.0
  0
LINE
  5
B47E
330
1F
100
AcDbEntity
  8
0
 62
     0
 48
0.5
100
AcDbLine
 10
-19.14765809548646
 20
1244.112797140309
 30
0.0
 11
-19.6330593081916
 21
1243.400171069812
 31
0.0
  0
LINE
  5
B47F
330
1F
100
AcDbEntity
  8
0
 62
     0
 48
0.5
100
AcDbLine
 10
-19.6330593081916
 20
1243.400171069812
 30
0.0
 11
-19.75684456071201
 21
1249.398894034849
 31
0.0
  0
LINE
  5
B480
330
1F
100
AcDbEntity
  8
0
 62
     0
 48
0.5
100
AcDbLine
 10
-19.24224577341703
 20
1248.686267964352
 30
0.0
 11
-18.75684456071201
 21
1249.398894034849
 31
0.0
  0
LINE
  5
B481
330
1F
100
AcDbEntity
  8
0
 62
     0
 48
0.5
100
AcDbLine
 10
-19.1474452563259
 20
1244.092166264889
 30
0.0
 11
-18.6330593081916
 21
1243.400171069812
 31
0.0
  0
LINE
  5
B482
330
1F
100
AcDbEntity
  8
0
 62
     0
 48
0.5
100
AcDbLine
 10
-18.6330593081916
 20
1243.400171069812
 30
0.0
 11
-18.75684456071201
 21
1249.398894034849
 31
0.0
  0
LINE
  5
B483
330
1F
100
AcDbEntity
  8
0
 62
     0
 48
0.5
100
AcDbLine
 10
-18.14765809548646
 20
1244.112797140309
 30
0.0
 11
-18.2424586125777
 21
1248.706898839772
 31
0.0
  0
LINE
  5
B484
330
1F
100
AcDbEntity
  8
0
 62
     0
 48
0.5
100
AcDbLine
 10
-17.14765809548646
 20
1244.112797140309
 30
0.0
 11
-17.2424586125777
 21
1248.706898839772
 31
0.0
  0
LINE
  5
B485
330
1F
100
AcDbEntity
  8
0
 62
     0
 48
0.5
100
AcDbLine
 10
-18.24224577341704
 20
1248.686267964352
 30
0.0
 11
-17.75684456071201
 21
1249.398894034849
 31
0.0
  0
LINE
  5
B486
330
1F
100
AcDbEntity
  8
0
 62
     0
 48
0.5
100
AcDbLine
 10
-17.2424586125777
 20
1248.706898839772
 30
0.0
 11
-17.75684456071201
 21
1249.398894034849
 31
0.0
  0
LINE
  5
B487
330
1F
100
AcDbEntity
  8
0
 62
     0
 48
0.5
100
AcDbLine
 10
-18.1474452563259
 20
1244.092166264889
 30
0.0
 11
-17.6330593081916
 21
1243.400171069812
 31
0.0
  0
LINE
  5
B488
330
1F
100
AcDbEntity
  8
0
 62
     0
 48
0.5
100
AcDbLine
 10
-17.14765809548646
 20
1244.112797140309
 30
0.0
 11
-17.6330593081916
 21
1243.400171069812
 31
0.0
  0
LINE
  5
B489
330
1F
100
AcDbEntity
  8
0
 62
     0
 48
0.5
100
AcDbLine
 10
-17.6330593081916
 20
1243.400171069812
 30
0.0
 11
-17.75684456071201
 21
1249.398894034849
 31
0.0
  0
LINE
  5
B48A
330
1F
100
AcDbEntity
  8
0
 62
     0
 48
0.5
100
AcDbLine
 10
-16.14765809548646
 20
1244.112797140309
 30
0.0
 11
-16.2424586125777
 21
1248.706898839772
 31
0.0
  0
LINE
  5
B48B
330
1F
100
AcDbEntity
  8
0
 62
     0
 48
0.5
100
AcDbLine
 10
-17.24224577341703
 20
1248.686267964352
 30
0.0
 11
-16.75684456071201
 21
1249.398894034849
 31
0.0
  0
LINE
  5
B48C
330
1F
100
AcDbEntity
  8
0
 62
     0
 48
0.5
100
AcDbLine
 10
-16.2424586125777
 20
1248.706898839772
 30
0.0
 11
-16.75684456071201
 21
1249.398894034849
 31
0.0
  0
LINE
  5
B48D
330
1F
100
AcDbEntity
  8
0
 62
     0
 48
0.5
100
AcDbLine
 10
-17.14744525632591
 20
1244.092166264889
 30
0.0
 11
-16.6330593081916
 21
1243.400171069812
 31
0.0
  0
LINE
  5
B48E
330
1F
100
AcDbEntity
  8
0
 62
     0
 48
0.5
100
AcDbLine
 10
-16.14765809548646
 20
1244.112797140309
 30
0.0
 11
-16.6330593081916
 21
1243.400171069812
 31
0.0
  0
LINE
  5
B48F
330
1F
100
AcDbEntity
  8
0
 62
     0
 48
0.5
100
AcDbLine
 10
-16.6330593081916
 20
1243.400171069812
 30
0.0
 11
-16.75684456071201
 21
1249.398894034849
 31
0.0
  0
LINE
  5
B490
330
1F
100
AcDbEntity
  8
0
 62
     0
 48
0.5
100
AcDbLine
 10
-15.14765809548646
 20
1244.112797140309
 30
0.0
 11
-15.2424586125777
 21
1248.706898839772
 31
0.0
  0
LINE
  5
B491
330
1F
100
AcDbEntity
  8
0
 62
     0
 48
0.5
100
AcDbLine
 10
-16.24224577341704
 20
1248.686267964352
 30
0.0
 11
-15.75684456071201
 21
1249.398894034849
 31
0.0
  0
LINE
  5
B492
330
1F
100
AcDbEntity
  8
0
 62
     0
 48
0.5
100
AcDbLine
 10
-15.2424586125777
 20
1248.706898839772
 30
0.0
 11
-15.75684456071201
 21
1249.398894034849
 31
0.0
  0
LINE
  5
B493
330
1F
100
AcDbEntity
  8
0
 62
     0
 48
0.5
100
AcDbLine
 10
-16.1474452563259
 20
1244.092166264889
 30
0.0
 11
-15.6330593081916
 21
1243.400171069812
 31
0.0
  0
LINE
  5
B494
330
1F
100
AcDbEntity
  8
0
 62
     0
 48
0.5
100
AcDbLine
 10
-15.14765809548646
 20
1244.112797140309
 30
0.0
 11
-15.6330593081916
 21
1243.400171069812
 31
0.0
  0
LINE
  5
B495
330
1F
100
AcDbEntity
  8
0
 62
     0
 48
0.5
100
AcDbLine
 10
-15.6330593081916
 20
1243.400171069812
 30
0.0
 11
-15.75684456071201
 21
1249.398894034849
 31
0.0
  0
LINE
  5
B496
330
1F
100
AcDbEntity
  8
0
 62
     0
 48
0.5
100
AcDbLine
 10
-14.14765809548646
 20
1244.112797140309
 30
0.0
 11
-14.2424586125777
 21
1248.706898839772
 31
0.0
  0
LINE
  5
B497
330
1F
100
AcDbEntity
  8
0
 62
     0
 48
0.5
100
AcDbLine
 10
-15.24224577341704
 20
1248.686267964352
 30
0.0
 11
-14.75684456071201
 21
1249.398894034849
 31
0.0
  0
LINE
  5
B498
330
1F
100
AcDbEntity
  8
0
 62
     0
 48
0.5
100
AcDbLine
 10
-14.2424586125777
 20
1248.706898839772
 30
0.0
 11
-14.75684456071201
 21
1249.398894034849
 31
0.0
  0
LINE
  5
B499
330
1F
100
AcDbEntity
  8
0
 62
     0
 48
0.5
100
AcDbLine
 10
-15.14744525632591
 20
1244.092166264889
 30
0.0
 11
-14.6330593081916
 21
1243.400171069812
 31
0.0
  0
LINE
  5
B49A
330
1F
100
AcDbEntity
  8
0
 62
     0
 48
0.5
100
AcDbLine
 10
-14.14765809548646
 20
1244.112797140309
 30
0.0
 11
-14.6330593081916
 21
1243.400171069812
 31
0.0
  0
LINE
  5
B49B
330
1F
100
AcDbEntity
  8
0
 62
     0
 48
0.5
100
AcDbLine
 10
-14.6330593081916
 20
1243.400171069812
 30
0.0
 11
-14.75684456071201
 21
1249.398894034849
 31
0.0
  0
LINE
  5
B49C
330
1F
100
AcDbEntity
  8
0
 62
     0
 48
0.5
100
AcDbLine
 10
-13.14765809548646
 20
1244.112797140309
 30
0.0
 11
-13.2424586125777
 21
1248.706898839772
 31
0.0
  0
LINE
  5
B49D
330
1F
100
AcDbEntity
  8
0
 62
     0
 48
0.5
100
AcDbLine
 10
-14.24224577341703
 20
1248.686267964352
 30
0.0
 11
-13.75684456071201
 21
1249.398894034849
 31
0.0
  0
LINE
  5
B49E
330
1F
100
AcDbEntity
  8
0
 62
     0
 48
0.5
100
AcDbLine
 10
-13.2424586125777
 20
1248.706898839772
 30
0.0
 11
-13.75684456071201
 21
1249.398894034849
 31
0.0
  0
LINE
  5
B49F
330
1F
100
AcDbEntity
  8
0
 62
     0
 48
0.5
100
AcDbLine
 10
-14.14744525632591
 20
1244.092166264889
 30
0.0
 11
-13.6330593081916
 21
1243.400171069812
 31
0.0
  0
LINE
  5
B4A0
330
1F
100
AcDbEntity
  8
0
 62
     0
 48
0.5
100
AcDbLine
 10
-13.14765809548646
 20
1244.112797140309
 30
0.0
 11
-13.6330593081916
 21
1243.400171069812
 31
0.0
  0
LINE
  5
B4A1
330
1F
100
AcDbEntity
  8
0
 62
     0
 48
0.5
100
AcDbLine
 10
-13.6330593081916
 20
1243.400171069812
 30
0.0
 11
-13.75684456071201
 21
1249.398894034849
 31
0.0
  0
LINE
  5
B4A2
330
1F
100
AcDbEntity
  8
0
 62
     0
 48
0.5
100
AcDbLine
 10
-12.6330593081916
 20
1243.400171069812
 30
0.0
 11
-12.75684456071201
 21
1249.398894034849
 31
0.0
  0
LINE
  5
B4A3
330
1F
100
AcDbEntity
  8
0
 62
     0
 48
0.5
100
AcDbLine
 10
-13.1474452563259
 20
1244.092166264889
 30
0.0
 11
-12.6330593081916
 21
1243.400171069812
 31
0.0
  0
LINE
  5
B4A4
330
1F
100
AcDbEntity
  8
0
 62
     0
 48
0.5
100
AcDbLine
 10
-12.2424586125777
 20
1248.706898839772
 30
0.0
 11
-12.75684456071201
 21
1249.398894034849
 31
0.0
  0
LINE
  5
B4A5
330
1F
100
AcDbEntity
  8
0
 62
     0
 48
0.5
100
AcDbLine
 10
-13.24224577341704
 20
1248.686267964352
 30
0.0
 11
-12.75684456071201
 21
1249.398894034849
 31
0.0
  0
LINE
  5
B4A6
330
1F
100
AcDbEntity
  8
0
 62
     0
 48
0.5
100
AcDbLine
 10
-18.2424586125777
 20
1248.706898839772
 30
0.0
 11
-18.75684456071201
 21
1249.398894034849
 31
0.0
  0
LINE
  5
B4A7
330
1F
100
AcDbEntity
  8
0
 62
     0
 48
0.5
100
AcDbLine
 10
-18.14765809548646
 20
1244.112797140309
 30
0.0
 11
-18.6330593081916
 21
1243.400171069812
 31
0.0
  0
LINE
  5
B4CE
330
1F
100
AcDbEntity
  8
0
 62
     0
 48
0.5
100
AcDbLine
 10
-20.14765809548646
 20
1244.112797140309
 30
0.0
 11
-20.19505835403197
 21
1246.409847990035
 31
0.0
  0
LINE
  5
B4D2
330
1F
100
AcDbEntity
  8
0
 62
     0
 48
0.5
100
AcDbLine
 10
-20.14765809548646
 20
1244.112797140309
 30
0.0
 11
-20.19505835403197
 21
1244.043207985804
 31
0.0
  0
LINE
  5
B4D8
330
1F
100
AcDbEntity
  8
0
 62
     0
100
AcDbLine
 10
-28.33852294181258
 20
1240.662404083613
 30
0.0
 11
-32.74484941892626
 21
1240.662404083613
 31
0.0
  0
LINE
  5
B4D9
330
1F
100
AcDbEntity
  8
0
 62
     0
100
AcDbLine
 10
-32.75029179463842
 20
1252.157884232746
 30
0.0
 11
-28.99545018651076
 21
1252.157884232746
 31
0.0
  0
LINE
  5
B4DA
330
1F
100
AcDbEntity
  8
0
 62
     0
100
AcDbLine
 10
-32.75029179463842
 20
1252.157884232746
 30
0.0
 11
-28.33852416462571
 21
1252.157884232746
 31
0.0
  0
LINE
  5
B4DB
330
1F
100
AcDbEntity
  8
0
 62
     0
100
AcDbLine
 10
-32.75029179463842
 20
1249.288568020872
 30
0.0
 11
-28.99545018651076
 21
1249.288568020872
 31
0.0
  0
LINE
  5
B4DC
330
1F
100
AcDbEntity
  8
0
 62
     0
100
AcDbLine
 10
-32.75029179463842
 20
1243.549935597123
 30
0.0
 11
-28.99545018651076
 21
1243.549935597123
 31
0.0
  0
LINE
  5
B4DD
330
1F
100
AcDbEntity
  8
0
 62
     0
100
AcDbLine
 10
-28.33852294181258
 20
1240.662404083613
 30
0.0
 11
-28.19505835403208
 21
1240.805277557928
 31
0.0
  0
LINE
  5
B4DE
330
1F
100
AcDbEntity
  8
0
 62
     0
100
AcDbLine
 10
-28.33852416462571
 20
1252.157884232746
 30
0.0
 11
-28.19505835403208
 21
1252.014418422153
 31
0.0
  0
LINE
  5
B4DF
330
1F
100
AcDbEntity
  8
0
 62
     0
100
AcDbLine
 10
-28.99545018651076
 20
1249.288568020872
 30
0.0
 11
-28.19505835403208
 21
1249.288568020872
 31
0.0
  0
LINE
  5
B4E0
330
1F
100
AcDbEntity
  8
0
 62
     0
100
AcDbLine
 10
-28.19505835403208
 20
1246.409847990041
 30
0.0
 11
-28.19505835403208
 21
1243.540531778166
 31
0.0
  0
LINE
  5
B4E1
330
1F
100
AcDbEntity
  8
0
 62
     0
100
AcDbLine
 10
-28.19505835403208
 20
1246.409847990041
 30
0.0
 11
-28.19505835403208
 21
1244.975189884104
 31
0.0
  0
LINE
  5
B4E2
330
1F
100
AcDbEntity
  8
0
 62
     0
100
AcDbLine
 10
-28.99545018651076
 20
1243.549935597123
 30
0.0
 11
-28.19505835403208
 21
1243.549935597123
 31
0.0
  0
LINE
  5
B4E3
330
1F
100
AcDbEntity
  8
0
 62
     0
100
AcDbLine
 10
-28.19505835403208
 20
1252.014418422153
 30
0.0
 11
-28.19505835403208
 21
1240.805277557928
 31
0.0
  0
LINE
  5
B4E4
330
1F
100
AcDbEntity
  8
0
 62
     0
100
AcDbLine
 10
-33.32667755090608
 20
1250.723226126809
 30
0.0
 11
-33.31023032255086
 21
1242.115277491186
 31
0.0
  0
ARC
  5
B4E5
330
1F
100
AcDbEntity
  8
0
 62
     0
100
AcDbCircle
 10
-31.25301039747103
 20
1250.723226126809
 30
0.0
 40
2.073667153435057
100
AcDbArc
 50
136.2235944163291
 51
223.7764055836709
  0
ARC
  5
B4E6
330
1F
100
AcDbEntity
  8
0
 62
     0
100
AcDbCircle
 10
-25.9217766194755
 20
1246.419251808998
 30
0.0
 40
7.406861347504564
100
AcDbArc
 50
157.2080385520314
 51
202.7919614479686
  0
ARC
  5
B4E7
330
1F
100
AcDbEntity
  8
0
 62
     0
100
AcDbCircle
 10
-31.1923415564255
 20
1242.115277491186
 30
0.0
 40
2.117888766125186
100
AcDbArc
 50
137.3591881474103
 51
222.6408118525896
  0
LINE
  5
B4E8
330
1F
100
AcDbEntity
  8
0
 62
     0
 48
0.5
100
AcDbLine
 10
61.84716180425585
 20
1254.409847990048
 30
0.0
 11
-2.852838195744141
 21
1254.409847990048
 31
0.0
  0
LINE
  5
B4E9
330
1F
100
AcDbEntity
  8
0
 62
     0
 48
0.5
100
AcDbLine
 10
-2.852838195744141
 20
1238.409847990048
 30
0.0
 11
61.84716180425585
 21
1238.409847990048
 31
0.0
  0
LINE
  5
B4EA
330
1F
100
AcDbEntity
  8
0
 62
     0
 48
0.5
100
AcDbLine
 10
-2.852838195744141
 20
1254.409847990048
 30
0.0
 11
-3.152838195744152
 21
1254.109847990048
 31
0.0
  0
LINE
  5
B4EB
330
1F
100
AcDbEntity
  8
0
 62
     0
 48
0.5
100
AcDbLine
 10
-2.852838195744141
 20
1238.409847990048
 30
0.0
 11
-3.152838195744152
 21
1238.709847990048
 31
0.0
  0
LINE
  5
B4EC
330
1F
100
AcDbEntity
  8
0
 62
     0
 48
0.5
100
AcDbLine
 10
-3.152838195744152
 20
1246.409847990048
 30
0.0
 11
-3.152838195744152
 21
1244.409847990048
 31
0.0
  0
LINE
  5
B4ED
330
1F
100
AcDbEntity
  8
0
 62
     0
 48
0.5
100
AcDbLine
 10
-3.152838195744152
 20
1246.409847990048
 30
0.0
 11
-3.152838195744152
 21
1244.409847990048
 31
0.0
  0
LINE
  5
B4EE
330
1F
100
AcDbEntity
  8
0
 62
     0
 48
0.5
100
AcDbLine
 10
-3.152838195744152
 20
1244.409847990048
 30
0.0
 11
-3.152838195744152
 21
1246.409847990048
 31
0.0
  0
LINE
  5
B4EF
330
1F
100
AcDbEntity
  8
0
 62
     0
 48
0.5
100
AcDbLine
 10
-3.152838195744152
 20
1246.409847990048
 30
0.0
 11
-3.152838195744152
 21
1248.409847990048
 31
0.0
  0
LINE
  5
B4F0
330
1F
100
AcDbEntity
  8
0
 62
     0
 48
0.5
100
AcDbLine
 10
-3.152838195744152
 20
1244.409847990048
 30
0.0
 11
-3.152838195744152
 21
1248.409847990048
 31
0.0
  0
LINE
  5
B4F1
330
1F
100
AcDbEntity
  8
0
 62
     0
 48
0.5
100
AcDbLine
 10
-3.152838195744152
 20
1254.109847990048
 30
0.0
 11
-3.152838195744152
 21
1238.709847990048
 31
0.0
  0
LINE
  5
B4F2
330
1F
100
AcDbEntity
  8
0
 62
     0
 48
0.5
100
AcDbLine
 10
61.84716180425585
 20
1238.409847990048
 30
0.0
 11
61.84716180425585
 21
1254.409847990048
 31
0.0
  0
LINE
  5
B4F3
330
1F
100
AcDbEntity
  8
0
 62
     0
 48
0.5
100
AcDbLine
 10
184.1564308490704
 20
1254.409847990048
 30
0.0
 11
183.8564308490704
 21
1254.109847990048
 31
0.0
  0
LINE
  5
B4F4
330
1F
100
AcDbEntity
  8
0
 62
     0
 48
0.5
100
AcDbLine
 10
248.8564308490704
 20
1254.409847990048
 30
0.0
 11
184.1564308490704
 21
1254.409847990048
 31
0.0
  0
LINE
  5
B4F5
330
1F
100
AcDbEntity
  8
0
 62
     0
 48
0.5
100
AcDbLine
 10
184.1564308490704
 20
1238.409847990048
 30
0.0
 11
248.8564308490704
 21
1238.409847990048
 31
0.0
  0
LINE
  5
B4F6
330
1F
100
AcDbEntity
  8
0
 62
     0
 48
0.5
100
AcDbLine
 10
184.1564308490704
 20
1238.409847990048
 30
0.0
 11
183.8564308490704
 21
1238.709847990048
 31
0.0
  0
LINE
  5
B4F7
330
1F
100
AcDbEntity
  8
0
 62
     0
 48
0.5
100
AcDbLine
 10
183.8564308490704
 20
1246.409847990048
 30
0.0
 11
183.8564308490704
 21
1244.409847990048
 31
0.0
  0
LINE
  5
B4F8
330
1F
100
AcDbEntity
  8
0
 62
     0
 48
0.5
100
AcDbLine
 10
183.8564308490704
 20
1246.409847990048
 30
0.0
 11
183.8564308490704
 21
1244.409847990048
 31
0.0
  0
LINE
  5
B4F9
330
1F
100
AcDbEntity
  8
0
 62
     0
 48
0.5
100
AcDbLine
 10
183.8564308490704
 20
1244.409847990048
 30
0.0
 11
183.8564308490704
 21
1246.409847990048
 31
0.0
  0
LINE
  5
B4FA
330
1F
100
AcDbEntity
  8
0
 62
     0
 48
0.5
100
AcDbLine
 10
183.8564308490704
 20
1246.409847990048
 30
0.0
 11
183.8564308490704
 21
1248.409847990048
 31
0.0
  0
LINE
  5
B4FB
330
1F
100
AcDbEntity
  8
0
 62
     0
 48
0.5
100
AcDbLine
 10
183.8564308490704
 20
1244.409847990048
 30
0.0
 11
183.8564308490704
 21
1248.409847990048
 31
0.0
  0
LINE
  5
B4FC
330
1F
100
AcDbEntity
  8
0
 62
     0
 48
0.5
100
AcDbLine
 10
183.8564308490704
 20
1254.109847990048
 30
0.0
 11
183.8564308490704
 21
1238.709847990048
 31
0.0
  0
LINE
  5
B4FD
330
1F
100
AcDbEntity
  8
0
 62
     0
 48
0.5
100
AcDbLine
 10
248.8564308490704
 20
1238.409847990048
 30
0.0
 11
248.8564308490704
 21
1254.409847990048
 31
0.0
  0
LINE
  5
B4FE
330
1F
100
AcDbEntity
  8
Object
 62
     0
 48
0.3
100
AcDbLine
 10
334.6351992512837
 20
1239.909847990048
 30
0.0
 11
316.1351992512837
 21
1239.909847990048
 31
0.0
  0
LINE
  5
B4FF
330
1F
100
AcDbEntity
  8
Object
 62
     0
 48
0.3
100
AcDbLine
 10
316.1351992512837
 20
1252.909847990048
 30
0.0
 11
334.6351992512837
 21
1252.909847990048
 31
0.0
  0
LINE
  5
B500
330
1F
100
AcDbEntity
  8
Object
 62
     0
 48
0.3
100
AcDbLine
 10
313.3351992512837
 20
1251.409847990048
 30
0.0
 11
313.3351992512837
 21
1241.409847990048
 31
0.0
  0
LINE
  5
B502
330
1F
100
AcDbEntity
  8
Object
 62
     0
 48
0.3
100
AcDbLine
 10
316.1351992512837
 20
1241.409847990048
 30
0.0
 11
316.1351992512837
 21
1239.909847990048
 31
0.0
  0
LINE
  5
B503
330
1F
100
AcDbEntity
  8
Object
 62
     0
 48
0.3
100
AcDbLine
 10
313.3351992512837
 20
1241.409847990048
 30
0.0
 11
316.1351992512837
 21
1241.409847990048
 31
0.0
  0
LINE
  5
B504
330
1F
100
AcDbEntity
  8
Object
 62
     0
 48
0.3
100
AcDbLine
 10
316.1351992512837
 20
1251.409847990048
 30
0.0
 11
316.1351992512837
 21
1252.909847990048
 31
0.0
  0
LINE
  5
B505
330
1F
100
AcDbEntity
  8
Object
 62
     0
 48
0.3
100
AcDbLine
 10
313.3351992512837
 20
1251.409847990048
 30
0.0
 11
316.1351992512837
 21
1251.409847990048
 31
0.0
  0
LINE
  5
B506
330
1F
100
AcDbEntity
  8
Object
 62
     0
 48
0.3
100
AcDbLine
 10
345.9259017502251
 20
1246.437078790163
 30
0.0
 11
345.9259017502251
 21
1240.437078790162
 31
0.0
  0
LINE
  5
B507
330
1F
100
AcDbEntity
  8
Object
 62
     0
 48
0.3
100
AcDbLine
 10
344.3259017502251
 20
1252.437078790162
 30
0.0
 11
344.3259017502251
 21
1240.437078790162
 31
0.0
  0
LINE
  5
B508
330
1F
100
AcDbEntity
  8
Object
 62
     0
 48
0.3
100
AcDbLine
 10
341.1351992512837
 20
1252.709847990048
 30
0.0
 11
341.1351992512837
 21
1240.109847990048
 31
0.0
  0
LINE
  5
B509
330
1F
100
AcDbEntity
  8
0
 62
     0
 48
0.3
100
AcDbLine
 10
338.1351992512837
 20
1251.409847990048
 30
0.0
 11
338.1351992512837
 21
1241.409847990048
 31
0.0
  0
LINE
  5
B50A
330
1F
100
AcDbEntity
  8
0
 62
     0
 48
0.3
100
AcDbLine
 10
335.1351992512837
 20
1251.409847990048
 30
0.0
 11
335.1351992512837
 21
1241.409847990048
 31
0.0
  0
LINE
  5
B50B
330
1F
100
AcDbEntity
  8
Object
 62
     0
 48
0.3
100
AcDbLine
 10
340.9351992512837
 20
1239.909847990048
 30
0.0
 11
341.1351992512837
 21
1240.109847990048
 31
0.0
  0
LINE
  5
B50C
330
1F
100
AcDbEntity
  8
Object
 62
     0
 48
0.3
100
AcDbLine
 10
338.1351992512837
 20
1239.909847990048
 30
0.0
 11
338.1351992512837
 21
1241.409847990048
 31
0.0
  0
LINE
  5
B50D
330
1F
100
AcDbEntity
  8
Object
 62
     0
 48
0.3
100
AcDbLine
 10
340.9351992512837
 20
1239.909847990048
 30
0.0
 11
338.1351992512837
 21
1239.909847990048
 31
0.0
  0
LINE
  5
B50E
330
1F
100
AcDbEntity
  8
Object
 62
     0
 48
0.3
100
AcDbLine
 10
335.1351992512837
 20
1241.409847990048
 30
0.0
 11
334.6351992512837
 21
1239.909847990048
 31
0.0
  0
LINE
  5
B50F
330
1F
100
AcDbEntity
  8
Object
 62
     0
 48
0.3
100
AcDbLine
 10
338.1351992512837
 20
1241.409847990048
 30
0.0
 11
335.1351992512837
 21
1241.409847990048
 31
0.0
  0
LINE
  5
B510
330
1F
100
AcDbEntity
  8
Object
 62
     0
 48
0.3
100
AcDbLine
 10
344.3259017502251
 20
1240.437078790162
 30
0.0
 11
345.9259017502251
 21
1240.437078790162
 31
0.0
  0
LINE
  5
B511
330
1F
100
AcDbEntity
  8
Object
 62
     0
 48
0.3
100
AcDbLine
 10
341.1351992512837
 20
1252.709847990048
 30
0.0
 11
340.9351992512837
 21
1252.909847990048
 31
0.0
  0
LINE
  5
B512
330
1F
100
AcDbEntity
  8
Object
 62
     0
 48
0.3
100
AcDbLine
 10
338.1351992512837
 20
1252.909847990048
 30
0.0
 11
338.1351992512837
 21
1251.409847990048
 31
0.0
  0
LINE
  5
B513
330
1F
100
AcDbEntity
  8
Object
 62
     0
 48
0.3
100
AcDbLine
 10
338.1351992512837
 20
1252.909847990048
 30
0.0
 11
340.9351992512837
 21
1252.909847990048
 31
0.0
  0
LINE
  5
B514
330
1F
100
AcDbEntity
  8
Object
 62
     0
 48
0.3
100
AcDbLine
 10
335.1351992512837
 20
1251.409847990048
 30
0.0
 11
334.6351992512837
 21
1252.909847990048
 31
0.0
  0
LINE
  5
B515
330
1F
100
AcDbEntity
  8
Object
 62
     0
 48
0.3
100
AcDbLine
 10
338.1351992512837
 20
1251.409847990048
 30
0.0
 11
335.1351992512837
 21
1251.409847990048
 31
0.0
  0
LINE
  5
B516
330
1F
100
AcDbEntity
  8
Object
 62
     0
 48
0.3
100
AcDbLine
 10
345.9259017502251
 20
1252.437078790162
 30
0.0
 11
344.3259017502251
 21
1252.437078790162
 31
0.0
  0
LINE
  5
B517
330
1F
100
AcDbEntity
  8
Object
 62
     0
 48
0.3
100
AcDbLine
 10
345.9259017502251
 20
1246.437078790163
 30
0.0
 11
345.9259017502251
 21
1252.437078790162
 31
0.0
  0
LINE
  5
B518
330
1F
100
AcDbEntity
  8
Object
 62
     0
 48
0.3
100
AcDbLine
 10
344.3259017502251
 20
1248.05224059393
 30
0.0
 11
345.9259017502251
 21
1246.437078790163
 31
0.0
  0
LINE
  5
B519
330
1F
100
AcDbEntity
  8
0
 62
     0
 48
0.3
100
AcDbLine
 10
345.9259017502251
 20
1246.657572829007
 30
0.0
 11
345.9259017502251
 21
1249.657572829007
 31
0.0
  0
LINE
  5
B51A
330
1F
100
AcDbEntity
  8
0
 62
     0
 48
0.5
100
AcDbLine
 10
61.84716180425585
 20
1246.409847990048
 30
0.0
 11
61.84716180425585
 21
1248.409847990048
 31
0.0
  0
LINE
  5
B51B
330
1F
100
AcDbEntity
  8
0
 62
     0
 48
0.5
100
AcDbLine
 10
61.84716180425585
 20
1248.409847990048
 30
0.0
 11
183.8564308490703
 21
1248.409847990048
 31
0.0
  0
LINE
  5
B51C
330
1F
100
AcDbEntity
  8
0
 62
     0
 48
0.5
100
AcDbLine
 10
61.84716180425585
 20
1244.409847990048
 30
0.0
 11
183.8564308490703
 21
1244.409847990048
 31
0.0
  0
LINE
  5
B51D
330
1F
100
AcDbEntity
  8
0
 62
     0
 48
0.5
100
AcDbLine
 10
248.8564308490704
 20
1248.409847990048
 30
0.0
 11
263.2186248529555
 21
1248.409847990048
 31
0.0
  0
LINE
  5
B51F
330
1F
100
AcDbEntity
  8
0
 62
     0
 48
0.5
100
AcDbLine
 10
248.8564308490704
 20
1244.409847990048
 30
0.0
 11
263.2186248529555
 21
1244.409847990048
 31
0.0
  0
LINE
  5
B520
330
1F
100
AcDbEntity
  8
0
 62
     0
 48
0.5
100
AcDbLine
 10
-12.11109372259387
 20
1119.906727460657
 30
0.0
 11
-25.05109372259386
 21
1119.906727460657
 31
0.0
  0
LINE
  5
B521
330
1F
100
AcDbEntity
  8
0
 62
     0
 48
0.5
100
AcDbLine
 10
-25.05109372259386
 20
1116.706727460657
 30
0.0
 11
-12.11109372259387
 21
1116.706727460657
 31
0.0
  0
LINE
  5
B522
330
1F
100
AcDbEntity
  8
0
 62
     0
 48
0.5
100
AcDbLine
 10
-25.11109372259387
 20
1118.306727460657
 30
0.0
 11
-25.11109372259387
 21
1117.906727460657
 31
0.0
  0
LINE
  5
B523
330
1F
100
AcDbEntity
  8
0
 62
     0
 48
0.5
100
AcDbLine
 10
-25.11109372259387
 20
1118.306727460657
 30
0.0
 11
-25.11109372259387
 21
1117.906727460657
 31
0.0
  0
LINE
  5
B524
330
1F
100
AcDbEntity
  8
0
 62
     0
 48
0.5
100
AcDbLine
 10
-25.11109372259387
 20
1117.906727460657
 30
0.0
 11
-25.11109372259387
 21
1118.306727460657
 31
0.0
  0
LINE
  5
B525
330
1F
100
AcDbEntity
  8
0
 62
     0
 48
0.5
100
AcDbLine
 10
-25.11109372259387
 20
1117.906727460657
 30
0.0
 11
-25.11109372259387
 21
1118.706727460657
 31
0.0
  0
LINE
  5
B526
330
1F
100
AcDbEntity
  8
0
 62
     0
 48
0.5
100
AcDbLine
 10
-25.11109372259387
 20
1119.846727460657
 30
0.0
 11
-25.11109372259387
 21
1116.766727460657
 31
0.0
  0
LINE
  5
B527
330
1F
100
AcDbEntity
  8
0
 62
     0
 48
0.5
100
AcDbLine
 10
-25.05109372259386
 20
1116.706727460657
 30
0.0
 11
-25.11109372259387
 21
1116.766727460657
 31
0.0
  0
LINE
  5
B528
330
1F
100
AcDbEntity
  8
0
 62
     0
 48
0.5
100
AcDbLine
 10
-25.05109372259386
 20
1119.906727460657
 30
0.0
 11
-25.11109372259387
 21
1119.846727460657
 31
0.0
  0
LINE
  5
B529
330
1F
100
AcDbEntity
  8
0
 62
     0
 48
0.5
100
AcDbLine
 10
-25.11109372259387
 20
1118.306727460657
 30
0.0
 11
-25.11109372259387
 21
1118.706727460657
 31
0.0
  0
LINE
  5
B52A
330
1F
100
AcDbEntity
  8
0
 62
     0
 48
0.5
100
AcDbLine
 10
-12.11109372259387
 20
1117.906727460657
 30
0.0
 11
12.29076008636903
 21
1117.906727460657
 31
0.0
  0
LINE
  5
B52B
330
1F
100
AcDbEntity
  8
0
 62
     0
 48
0.5
100
AcDbLine
 10
-12.11109372259387
 20
1118.706727460657
 30
0.0
 11
12.29076008636903
 21
1118.706727460657
 31
0.0
  0
LINE
  5
B52C
330
1F
100
AcDbEntity
  8
0
 62
     0
 48
0.5
100
AcDbLine
 10
-12.11109372259387
 20
1116.706727460657
 30
0.0
 11
-12.11109372259387
 21
1119.906727460657
 31
0.0
  0
LINE
  5
B52D
330
1F
100
AcDbEntity
  8
0
 62
     0
 48
0.5
100
AcDbLine
 10
-12.11109372259387
 20
1118.306727460657
 30
0.0
 11
-12.11109372259387
 21
1118.706727460657
 31
0.0
  0
LINE
  5
B562
330
1F
100
AcDbEntity
  8
0
 62
     0
100
AcDbLine
 10
-27.62214041071515
 20
1119.456334709198
 30
0.0
 11
-26.73978688471261
 21
1119.456334709198
 31
0.0
  0
LINE
  5
B563
330
1F
100
AcDbEntity
  8
0
 62
     0
100
AcDbLine
 10
-27.62214041071515
 20
1119.456334709198
 30
0.0
 11
-26.87117208908962
 21
1119.456334709198
 31
0.0
  0
LINE
  5
B564
330
1F
100
AcDbEntity
  8
0
 62
     0
100
AcDbLine
 10
-27.62214041071515
 20
1117.734744982074
 30
0.0
 11
-26.87117208908962
 21
1117.734744982074
 31
0.0
  0
LINE
  5
B565
330
1F
100
AcDbEntity
  8
0
 62
     0
100
AcDbLine
 10
-27.62214041071515
 20
1118.882471466823
 30
0.0
 11
-26.87117208908962
 21
1118.882471466823
 31
0.0
  0
LINE
  5
B566
330
1F
100
AcDbEntity
  8
0
 62
     0
100
AcDbLine
 10
-26.73978664014998
 20
1117.157238679372
 30
0.0
 11
-27.62105193557272
 21
1117.157238679372
 31
0.0
  0
ARC
  5
B567
330
1F
100
AcDbEntity
  8
0
 62
     0
100
AcDbCircle
 10
-26.25643737568257
 20
1118.308608224449
 30
0.0
 40
1.481372269500913
100
AcDbArc
 50
157.2080385520314
 51
202.7919614479686
  0
LINE
  5
B568
330
1F
100
AcDbEntity
  8
0
 62
     0
100
AcDbLine
 10
-27.73741756196868
 20
1119.169403088011
 30
0.0
 11
-27.73412811629764
 21
1117.447813360886
 31
0.0
  0
ARC
  5
B569
330
1F
100
AcDbEntity
  8
0
 62
     0
100
AcDbCircle
 10
-27.31055036307257
 20
1117.447813360886
 30
0.0
 40
0.4235777532250373
100
AcDbArc
 50
137.3591881474103
 51
222.6408118525896
  0
ARC
  5
B56A
330
1F
100
AcDbEntity
  8
0
 62
     0
100
AcDbCircle
 10
-27.32268413128167
 20
1119.169403088011
 30
0.0
 40
0.4147334306870116
100
AcDbArc
 50
136.2235944163291
 51
223.7764055836709
  0
LINE
  5
B56B
330
1F
100
AcDbEntity
  8
0
 62
     0
100
AcDbLine
 10
-26.71109372259389
 20
1118.306727460657
 30
0.0
 11
-26.71109372259389
 21
1117.732864218282
 31
0.0
  0
LINE
  5
B56C
330
1F
100
AcDbEntity
  8
0
 62
     0
100
AcDbLine
 10
-26.71109372259389
 20
1119.42764154708
 30
0.0
 11
-26.71109372259389
 21
1117.185813374235
 31
0.0
  0
LINE
  5
B56D
330
1F
100
AcDbEntity
  8
0
 62
     0
100
AcDbLine
 10
-26.87117208908962
 20
1117.734744982074
 30
0.0
 11
-26.71109372259389
 21
1117.734744982074
 31
0.0
  0
LINE
  5
B56E
330
1F
100
AcDbEntity
  8
0
 62
     0
100
AcDbLine
 10
-26.73978664014998
 20
1117.157238679372
 30
0.0
 11
-26.71109372259389
 21
1117.185813374235
 31
0.0
  0
LINE
  5
B56F
330
1F
100
AcDbEntity
  8
0
 62
     0
100
AcDbLine
 10
-26.73978688471261
 20
1119.456334709198
 30
0.0
 11
-26.71109372259389
 21
1119.42764154708
 31
0.0
  0
LINE
  5
B570
330
1F
100
AcDbEntity
  8
0
 62
     0
100
AcDbLine
 10
-26.71109372259389
 20
1118.306727460657
 30
0.0
 11
-26.71109372259389
 21
1118.01979583947
 31
0.0
  0
LINE
  5
B571
330
1F
100
AcDbEntity
  8
0
 62
     0
100
AcDbLine
 10
-26.87117208908962
 20
1118.882471466823
 30
0.0
 11
-26.71109372259389
 21
1118.882471466823
 31
0.0
  0
LINE
  5
B572
330
1F
100
AcDbEntity
  8
0
 62
     0
100
AcDbLine
 10
-26.71109372259389
 20
1084.506727460657
 30
0.0
 11
-26.71109372259389
 21
1083.932864218282
 31
0.0
  0
LINE
  5
B573
330
1F
100
AcDbEntity
  8
0
 62
     0
100
AcDbLine
 10
-26.71109372259389
 20
1085.62764154708
 30
0.0
 11
-26.71109372259389
 21
1083.385813374235
 31
0.0
  0
LINE
  5
B574
330
1F
100
AcDbEntity
  8
0
 62
     0
100
AcDbLine
 10
-26.71109372259389
 20
1084.506727460657
 30
0.0
 11
-26.71109372259389
 21
1084.21979583947
 31
0.0
  0
LINE
  5
B575
330
1F
100
AcDbEntity
  8
0
 62
     0
100
AcDbLine
 10
-26.87117208908962
 20
1083.934744982074
 30
0.0
 11
-26.71109372259389
 21
1083.934744982074
 31
0.0
  0
LINE
  5
B576
330
1F
100
AcDbEntity
  8
0
 62
     0
100
AcDbLine
 10
-26.73978664014998
 20
1083.357238679372
 30
0.0
 11
-26.71109372259389
 21
1083.385813374235
 31
0.0
  0
LINE
  5
B577
330
1F
100
AcDbEntity
  8
0
 62
     0
100
AcDbLine
 10
-26.73978688471261
 20
1085.656334709198
 30
0.0
 11
-26.71109372259389
 21
1085.62764154708
 31
0.0
  0
LINE
  5
B578
330
1F
100
AcDbEntity
  8
0
 62
     0
100
AcDbLine
 10
-26.87117208908962
 20
1085.082471466824
 30
0.0
 11
-26.71109372259389
 21
1085.082471466824
 31
0.0
  0
ARC
  5
B579
330
1F
100
AcDbEntity
  8
0
 62
     0
100
AcDbCircle
 10
-26.25643737568257
 20
1084.508608224449
 30
0.0
 40
1.481372269500913
100
AcDbArc
 50
157.2080385520314
 51
202.7919614479686
  0
LINE
  5
B57A
330
1F
100
AcDbEntity
  8
0
 62
     0
100
AcDbLine
 10
-27.73741756196868
 20
1085.369403088011
 30
0.0
 11
-27.73412811629764
 21
1083.647813360886
 31
0.0
  0
ARC
  5
B57B
330
1F
100
AcDbEntity
  8
0
 62
     0
100
AcDbCircle
 10
-27.31055036307257
 20
1083.647813360886
 30
0.0
 40
0.4235777532250373
100
AcDbArc
 50
137.3591881474103
 51
222.6408118525896
  0
ARC
  5
B57C
330
1F
100
AcDbEntity
  8
0
 62
     0
100
AcDbCircle
 10
-27.32268413128167
 20
1085.369403088011
 30
0.0
 40
0.4147334306870116
100
AcDbArc
 50
136.2235944163291
 51
223.7764055836709
  0
LINE
  5
B57D
330
1F
100
AcDbEntity
  8
0
 62
     0
100
AcDbLine
 10
-27.62214041071515
 20
1083.934744982074
 30
0.0
 11
-26.87117208908962
 21
1083.934744982074
 31
0.0
  0
LINE
  5
B57E
330
1F
100
AcDbEntity
  8
0
 62
     0
100
AcDbLine
 10
-26.73978664014998
 20
1083.357238679372
 30
0.0
 11
-27.62105193557272
 21
1083.357238679372
 31
0.0
  0
LINE
  5
B57F
330
1F
100
AcDbEntity
  8
0
 62
     0
100
AcDbLine
 10
-27.62214041071515
 20
1085.656334709198
 30
0.0
 11
-26.73978688471261
 21
1085.656334709198
 31
0.0
  0
LINE
  5
B580
330
1F
100
AcDbEntity
  8
0
 62
     0
100
AcDbLine
 10
-27.62214041071515
 20
1085.656334709198
 30
0.0
 11
-26.87117208908962
 21
1085.656334709198
 31
0.0
  0
LINE
  5
B581
330
1F
100
AcDbEntity
  8
0
 62
     0
100
AcDbLine
 10
-27.62214041071515
 20
1085.082471466824
 30
0.0
 11
-26.87117208908962
 21
1085.082471466824
 31
0.0
  0
LINE
  5
B582
330
1F
100
AcDbEntity
  8
0
 62
     0
 48
0.5
100
AcDbLine
 10
123.2889062774061
 20
1119.906727460657
 30
0.0
 11
110.3489062774061
 21
1119.906727460657
 31
0.0
  0
LINE
  5
B583
330
1F
100
AcDbEntity
  8
0
 62
     0
 48
0.5
100
AcDbLine
 10
110.3489062774061
 20
1116.706727460657
 30
0.0
 11
123.2889062774061
 21
1116.706727460657
 31
0.0
  0
LINE
  5
B584
330
1F
100
AcDbEntity
  8
0
 62
     0
 48
0.5
100
AcDbLine
 10
110.2889062774061
 20
1118.306727460657
 30
0.0
 11
110.2889062774061
 21
1117.906727460657
 31
0.0
  0
LINE
  5
B585
330
1F
100
AcDbEntity
  8
0
 62
     0
 48
0.5
100
AcDbLine
 10
110.2889062774061
 20
1118.306727460657
 30
0.0
 11
110.2889062774061
 21
1117.906727460657
 31
0.0
  0
LINE
  5
B586
330
1F
100
AcDbEntity
  8
0
 62
     0
 48
0.5
100
AcDbLine
 10
110.2889062774061
 20
1117.906727460657
 30
0.0
 11
110.2889062774061
 21
1118.306727460657
 31
0.0
  0
LINE
  5
B587
330
1F
100
AcDbEntity
  8
0
 62
     0
 48
0.5
100
AcDbLine
 10
110.2889062774061
 20
1117.906727460657
 30
0.0
 11
110.2889062774061
 21
1118.706727460657
 31
0.0
  0
LINE
  5
B588
330
1F
100
AcDbEntity
  8
0
 62
     0
 48
0.5
100
AcDbLine
 10
110.2889062774061
 20
1119.846727460657
 30
0.0
 11
110.2889062774061
 21
1116.766727460657
 31
0.0
  0
LINE
  5
B589
330
1F
100
AcDbEntity
  8
0
 62
     0
 48
0.5
100
AcDbLine
 10
110.3489062774061
 20
1116.706727460657
 30
0.0
 11
110.2889062774061
 21
1116.766727460657
 31
0.0
  0
LINE
  5
B58A
330
1F
100
AcDbEntity
  8
0
 62
     0
 48
0.5
100
AcDbLine
 10
110.3489062774061
 20
1119.906727460657
 30
0.0
 11
110.2889062774061
 21
1119.846727460657
 31
0.0
  0
LINE
  5
B58B
330
1F
100
AcDbEntity
  8
0
 62
     0
 48
0.5
100
AcDbLine
 10
110.2889062774061
 20
1118.306727460657
 30
0.0
 11
110.2889062774061
 21
1118.706727460657
 31
0.0
  0
LINE
  5
B58C
330
1F
100
AcDbEntity
  8
0
 62
     0
 48
0.5
100
AcDbLine
 10
123.2889062774061
 20
1116.706727460657
 30
0.0
 11
123.2889062774061
 21
1119.906727460657
 31
0.0
  0
LINE
  5
B58D
330
1F
100
AcDbEntity
  8
0
 62
     0
 48
0.5
100
AcDbLine
 10
12.29076008636903
 20
1117.906727460657
 30
0.0
 11
110.2889062774061
 21
1117.906727460657
 31
0.0
  0
LINE
  5
B58E
330
1F
100
AcDbEntity
  8
0
 62
     0
 48
0.5
100
AcDbLine
 10
12.29076008636903
 20
1118.706727460657
 30
0.0
 11
110.2889062774061
 21
1118.706727460657
 31
0.0
  0
LINE
  5
B58F
330
1F
100
AcDbEntity
  8
0
 62
     0
 48
0.5
100
AcDbLine
 10
12.29076008636903
 20
1084.906727460657
 30
0.0
 11
110.2889062774061
 21
1084.906727460657
 31
0.0
  0
LINE
  5
B590
330
1F
100
AcDbEntity
  8
0
 62
     0
 48
0.5
100
AcDbLine
 10
12.29076008636903
 20
1084.106727460657
 30
0.0
 11
110.2889062774061
 21
1084.106727460657
 31
0.0
  0
LINE
  5
B591
330
1F
100
AcDbEntity
  8
0
 62
     0
 48
0.5
100
AcDbLine
 10
-12.11109372259386
 20
1084.106727460657
 30
0.0
 11
12.29076008636903
 21
1084.106727460657
 31
0.0
  0
LINE
  5
B592
330
1F
100
AcDbEntity
  8
0
 62
     0
 48
0.5
100
AcDbLine
 10
-12.11109372259386
 20
1084.906727460657
 30
0.0
 11
12.29076008636903
 21
1084.906727460657
 31
0.0
  0
LINE
  5
B593
330
1F
100
AcDbEntity
  8
0
 62
     0
 48
0.5
100
AcDbLine
 10
-12.11109372259386
 20
1086.106727460657
 30
0.0
 11
-25.05109372259386
 21
1086.106727460657
 31
0.0
  0
LINE
  5
B594
330
1F
100
AcDbEntity
  8
0
 62
     0
 48
0.5
100
AcDbLine
 10
-25.05109372259386
 20
1082.906727460657
 30
0.0
 11
-12.11109372259386
 21
1082.906727460657
 31
0.0
  0
LINE
  5
B595
330
1F
100
AcDbEntity
  8
0
 62
     0
 48
0.5
100
AcDbLine
 10
-25.11109372259386
 20
1086.006727460657
 30
0.0
 11
-25.11109372259386
 21
1082.206727460657
 31
0.0
  0
LINE
  5
B596
330
1F
100
AcDbEntity
  8
0
 62
     0
 48
0.5
100
AcDbLine
 10
-25.11109372259386
 20
1084.506727460657
 30
0.0
 11
-25.11109372259386
 21
1084.106727460657
 31
0.0
  0
LINE
  5
B597
330
1F
100
AcDbEntity
  8
0
 62
     0
 48
0.5
100
AcDbLine
 10
-25.11109372259386
 20
1084.506727460657
 30
0.0
 11
-25.11109372259386
 21
1084.106727460657
 31
0.0
  0
LINE
  5
B598
330
1F
100
AcDbEntity
  8
0
 62
     0
 48
0.5
100
AcDbLine
 10
-25.11109372259386
 20
1084.106727460657
 30
0.0
 11
-25.11109372259386
 21
1084.506727460657
 31
0.0
  0
LINE
  5
B599
330
1F
100
AcDbEntity
  8
0
 62
     0
 48
0.5
100
AcDbLine
 10
-25.11109372259386
 20
1084.106727460657
 30
0.0
 11
-25.11109372259386
 21
1084.906727460657
 31
0.0
  0
LINE
  5
B59A
330
1F
100
AcDbEntity
  8
0
 62
     0
 48
0.5
100
AcDbLine
 10
-25.11109372259386
 20
1086.046727460658
 30
0.0
 11
-25.11109372259386
 21
1082.966727460657
 31
0.0
  0
LINE
  5
B59B
330
1F
100
AcDbEntity
  8
0
 62
     0
 48
0.5
100
AcDbLine
 10
-25.05109372259386
 20
1082.906727460657
 30
0.0
 11
-25.11109372259386
 21
1082.966727460657
 31
0.0
  0
LINE
  5
B59C
330
1F
100
AcDbEntity
  8
0
 62
     0
 48
0.5
100
AcDbLine
 10
-25.05109372259386
 20
1086.106727460657
 30
0.0
 11
-25.11109372259386
 21
1086.046727460658
 31
0.0
  0
LINE
  5
B59D
330
1F
100
AcDbEntity
  8
0
 62
     0
 48
0.5
100
AcDbLine
 10
-25.11109372259386
 20
1084.506727460657
 30
0.0
 11
-25.11109372259386
 21
1084.906727460657
 31
0.0
  0
LINE
  5
B59E
330
1F
100
AcDbEntity
  8
0
 62
     0
 48
0.5
100
AcDbLine
 10
-12.11109372259386
 20
1082.906727460657
 30
0.0
 11
-12.11109372259386
 21
1086.106727460657
 31
0.0
  0
LINE
  5
B59F
330
1F
100
AcDbEntity
  8
0
 62
     0
 48
0.5
100
AcDbLine
 10
-12.11109372259386
 20
1084.506727460657
 30
0.0
 11
-12.11109372259386
 21
1084.906727460657
 31
0.0
  0
LINE
  5
B5A0
330
1F
100
AcDbEntity
  8
0
 62
     0
 48
0.5
100
AcDbLine
 10
110.3489062774061
 20
1082.906727460657
 30
0.0
 11
123.2889062774061
 21
1082.906727460657
 31
0.0
  0
LINE
  5
B5A1
330
1F
100
AcDbEntity
  8
0
 62
     0
 48
0.5
100
AcDbLine
 10
123.2889062774061
 20
1086.106727460657
 30
0.0
 11
110.3489062774061
 21
1086.106727460657
 31
0.0
  0
LINE
  5
B5A2
330
1F
100
AcDbEntity
  8
0
 62
     0
 48
0.5
100
AcDbLine
 10
110.2889062774061
 20
1084.506727460657
 30
0.0
 11
110.2889062774061
 21
1084.906727460657
 31
0.0
  0
LINE
  5
B5A3
330
1F
100
AcDbEntity
  8
0
 62
     0
 48
0.5
100
AcDbLine
 10
110.3489062774061
 20
1086.106727460657
 30
0.0
 11
110.2889062774061
 21
1086.046727460658
 31
0.0
  0
LINE
  5
B5A4
330
1F
100
AcDbEntity
  8
0
 62
     0
 48
0.5
100
AcDbLine
 10
110.3489062774061
 20
1082.906727460657
 30
0.0
 11
110.2889062774061
 21
1082.966727460658
 31
0.0
  0
LINE
  5
B5A5
330
1F
100
AcDbEntity
  8
0
 62
     0
 48
0.5
100
AcDbLine
 10
110.2889062774061
 20
1086.046727460658
 30
0.0
 11
110.2889062774061
 21
1082.966727460658
 31
0.0
  0
LINE
  5
B5A6
330
1F
100
AcDbEntity
  8
0
 62
     0
 48
0.5
100
AcDbLine
 10
110.2889062774061
 20
1084.106727460657
 30
0.0
 11
110.2889062774061
 21
1084.906727460657
 31
0.0
  0
LINE
  5
B5A7
330
1F
100
AcDbEntity
  8
0
 62
     0
 48
0.5
100
AcDbLine
 10
110.2889062774061
 20
1084.106727460657
 30
0.0
 11
110.2889062774061
 21
1084.506727460657
 31
0.0
  0
LINE
  5
B5A8
330
1F
100
AcDbEntity
  8
0
 62
     0
 48
0.5
100
AcDbLine
 10
110.2889062774061
 20
1084.506727460657
 30
0.0
 11
110.2889062774061
 21
1084.106727460657
 31
0.0
  0
LINE
  5
B5A9
330
1F
100
AcDbEntity
  8
0
 62
     0
 48
0.5
100
AcDbLine
 10
110.2889062774061
 20
1084.506727460657
 30
0.0
 11
110.2889062774061
 21
1084.106727460657
 31
0.0
  0
LINE
  5
B5AA
330
1F
100
AcDbEntity
  8
0
 62
     0
 48
0.5
100
AcDbLine
 10
123.2889062774061
 20
1082.906727460657
 30
0.0
 11
123.2889062774061
 21
1086.106727460657
 31
0.0
  0
LINE
  5
B5CB
330
1F
100
AcDbEntity
  8
0
 62
     0
 48
0.5
100
AcDbLine
 10
125.2634062774062
 20
1117.166727460657
 30
0.0
 11
125.2634062774061
 21
1118.306727460657
 31
0.0
  0
LINE
  5
B5CC
330
1F
100
AcDbEntity
  8
0
 62
     0
 48
0.5
100
AcDbLine
 10
127.6634062774062
 20
1117.106727460657
 30
0.0
 11
125.3234062774061
 21
1117.106727460657
 31
0.0
  0
LINE
  5
B5CD
330
1F
100
AcDbEntity
  8
0
 62
     0
 48
0.5
100
AcDbLine
 10
125.3234062774061
 20
1117.106727460657
 30
0.0
 11
125.2634062774062
 21
1117.166727460657
 31
0.0
  0
LINE
  5
B5CE
330
1F
100
AcDbEntity
  8
0
 62
     0
 48
0.5
100
AcDbLine
 10
142.2963994550202
 20
1112.418782488248
 30
0.0
 11
131.0900307300496
 21
1118.888782488248
 31
0.0
  0
LINE
  5
B5CF
330
1F
100
AcDbEntity
  8
0
 62
     0
 48
0.5
100
AcDbLine
 10
129.4900307300496
 20
1116.117501196137
 30
0.0
 11
140.6963994550202
 21
1109.647501196138
 31
0.0
  0
LINE
  5
B5D0
330
1F
100
AcDbEntity
  8
0
 62
     0
 48
0.5
100
AcDbLine
 10
128.3043900839945
 20
1117.263911357651
 30
0.0
 11
129.5873397799971
 21
1116.523200005307
 31
0.0
  0
LINE
  5
B5D1
330
1F
100
AcDbEntity
  8
0
 62
     0
 48
0.5
100
AcDbLine
 10
130.5436205685358
 20
1118.742372326734
 30
0.0
 11
130.8900307300496
 21
1118.542372326734
 31
0.0
  0
LINE
  5
B5D2
330
1F
100
AcDbEntity
  8
0
 62
     0
 48
0.5
100
AcDbLine
 10
125.3141411801995
 20
1119.497462363451
 30
0.0
 11
128.9679931687033
 21
1119.502161098367
 31
0.0
  0
LINE
  5
B5D3
330
1F
100
AcDbEntity
  8
0
 62
     0
 48
0.5
100
AcDbLine
 10
125.2634062774061
 20
1118.306727460657
 30
0.0
 11
125.2541411801995
 21
1119.437462363451
 31
0.0
  0
LINE
  5
B5D4
330
1F
100
AcDbEntity
  8
0
 62
     0
 48
0.5
100
AcDbLine
 10
125.3141411801995
 20
1119.497462363451
 30
0.0
 11
125.2541411801995
 21
1119.437462363451
 31
0.0
  0
CIRCLE
  5
B5D5
330
1F
100
AcDbEntity
  8
0
 62
     0
 48
0.5
100
AcDbCircle
 10
128.8634062774061
 20
1118.306727460657
 30
0.0
 40
0.4200000000000001
  0
LINE
  5
B5D6
330
1F
100
AcDbEntity
  8
0
 62
     0
 48
0.5
100
AcDbLine
 10
128.5686001695178
 20
1117.111369593652
 30
0.0
 11
127.6634062774062
 21
1117.111369593652
 31
0.0
  0
ARC
  5
B5D7
330
1F
100
AcDbEntity
  8
0
 62
     0
 48
0.5
100
AcDbCircle
 10
128.9043900839945
 20
1118.303141842193
 30
0.0
 40
1.2
100
AcDbArc
 50
59.99999999999996
 51
239.9999999999999
  0
LINE
  5
B5D8
330
1F
100
AcDbEntity
  8
0
 62
     0
 48
0.5
100
AcDbLine
 10
127.6634062774062
 20
1119.506727460657
 30
0.0
 11
127.6634062774062
 21
1117.106727460657
 31
0.0
  0
ARC
  5
B5D9
330
1F
100
AcDbEntity
  8
0
 62
     0
 48
0.5
100
AcDbCircle
 10
128.8634062774061
 20
1118.306727460657
 30
0.0
 40
1.2
100
AcDbArc
 50
83.03646164772866
 51
84.99999999999928
  0
LINE
  5
B5DA
330
1F
100
AcDbEntity
  8
0
 62
     0
 48
0.5
100
AcDbLine
 10
129.5933908513663
 20
1119.285627436265
 30
0.0
 11
130.5412995020385
 21
1118.738352121633
 31
0.0
  0
LINE
  5
B5DB
330
1F
100
AcDbEntity
  8
0
 62
     0
 48
0.5
100
AcDbLine
 10
129.5043900839945
 20
1119.342372326734
 30
0.0
 11
129.5933908513663
 21
1119.285627436265
 31
0.0
  0
LINE
  5
B5DC
330
1F
100
AcDbEntity
  8
0
 62
     0
 48
0.5
100
AcDbLine
 10
129.6900307300495
 20
1116.463911357651
 30
0.0
 11
129.5873397799971
 21
1116.523200005307
 31
0.0
  0
LINE
  5
B5DD
330
1F
100
AcDbEntity
  8
0
 62
     0
 48
0.5
100
AcDbLine
 10
129.6900307300495
 20
1116.463911357651
 30
0.0
 11
130.8900307300496
 21
1118.542372326734
 31
0.0
  0
LINE
  5
B5DE
330
1F
100
AcDbEntity
  8
0
 62
     0
 48
0.5
100
AcDbLine
 10
131.0900307300496
 20
1118.888782488248
 30
0.0
 11
129.4900307300496
 21
1116.117501196137
 31
0.0
  0
LINE
  5
B5DF
330
1F
100
AcDbEntity
  8
0
 62
     0
 48
0.5
100
AcDbLine
 10
130.8900307300496
 20
1118.542372326734
 30
0.0
 11
129.6900307300496
 21
1116.463911357651
 31
0.0
  0
LINE
  5
B5E0
330
1F
100
AcDbEntity
  8
0
 62
     0
 48
0.5
100
AcDbLine
 10
140.7783609792472
 20
1109.669462720364
 30
0.0
 11
142.3183609792473
 21
1112.33682096402
 31
0.0
  0
LINE
  5
B5E6
330
1F
100
AcDbEntity
  8
0
 62
     0
 48
0.5
100
AcDbLine
 10
142.2963994550202
 20
1112.418782488248
 30
0.0
 11
142.3183609792473
 21
1112.33682096402
 31
0.0
  0
LINE
  5
B5E7
330
1F
100
AcDbEntity
  8
0
 62
     0
 48
0.5
100
AcDbLine
 10
140.6963994550202
 20
1109.647501196138
 30
0.0
 11
140.7783609792472
 21
1109.669462720364
 31
0.0
  0
LINE
  5
B5E8
330
1F
100
AcDbEntity
  8
Object
 62
     0
 48
0.5
100
AcDbLine
 10
124.8889062774061
 20
1119.475167460657
 30
0.0
 11
124.8889062774061
 21
1117.138287460657
 31
0.0
  0
LINE
  5
B5E9
330
1F
100
AcDbEntity
  8
Object
 62
     0
 48
0.5
100
AcDbLine
 10
125.2634062774061
 20
1117.138287460657
 30
0.0
 11
125.2634062774061
 21
1118.306727460657
 31
0.0
  0
LINE
  5
B5EA
330
1F
100
AcDbEntity
  8
Object
 62
     0
 48
0.5
100
AcDbLine
 10
124.9188662774061
 20
1117.108327460657
 30
0.0
 11
125.2334462774061
 21
1117.108327460657
 31
0.0
  0
LINE
  5
B5EB
330
1F
100
AcDbEntity
  8
Object
 62
     0
 48
0.5
100
AcDbLine
 10
125.2634062774061
 20
1117.138287460657
 30
0.0
 11
125.2334462774061
 21
1117.108327460657
 31
0.0
  0
LINE
  5
B5EC
330
1F
100
AcDbEntity
  8
Object
 62
     0
 48
0.5
100
AcDbLine
 10
124.8889062774061
 20
1117.138287460657
 30
0.0
 11
124.9188662774061
 21
1117.108327460657
 31
0.0
  0
LINE
  5
B5ED
330
1F
100
AcDbEntity
  8
Object
 62
     0
 48
0.5
100
AcDbLine
 10
125.2334462774061
 20
1119.505127460657
 30
0.0
 11
124.918866277406
 21
1119.505127460657
 31
0.0
  0
LINE
  5
B5EE
330
1F
100
AcDbEntity
  8
Object
 62
     0
 48
0.5
100
AcDbLine
 10
125.2334462774061
 20
1119.505127460657
 30
0.0
 11
125.2634062774061
 21
1119.475167460657
 31
0.0
  0
LINE
  5
B5EF
330
1F
100
AcDbEntity
  8
Object
 62
     0
 48
0.5
100
AcDbLine
 10
124.918866277406
 20
1119.505127460657
 30
0.0
 11
124.8889062774061
 21
1119.475167460657
 31
0.0
  0
LINE
  5
B5F1
330
1F
100
AcDbEntity
  8
Object
 62
     0
 48
0.5
100
AcDbLine
 10
125.2634062774061
 20
1118.306727460657
 30
0.0
 11
125.2634062774061
 21
1119.475167460657
 31
0.0
  0
LINE
  5
B5F2
330
1F
100
AcDbEntity
  8
0
 62
     0
 48
0.5
100
AcDbLine
 10
124.8889062774061
 20
1118.165813007439
 30
0.0
 11
125.2634062774061
 21
1118.495892589462
 31
0.0
  0
LINE
  5
B5F5
330
1F
100
AcDbEntity
  8
0
 62
     0
 48
0.5
100
AcDbLine
 10
414.7585125481486
 20
948.0257982613435
 30
0.0
 11
403.552143823178
 21
954.4957982613436
 31
0.0
  0
LINE
  5
B5F6
330
1F
100
AcDbEntity
  8
0
 62
     0
 48
0.5
100
AcDbLine
 10
405.1521438231779
 20
957.2670795534538
 30
0.0
 11
416.3585125481486
 21
950.7970795534538
 31
0.0
  0
LINE
  5
B5F8
330
1F
100
AcDbEntity
  8
0
 62
     0
 48
0.5
100
AcDbLine
 10
403.552143823178
 20
954.4957982613436
 30
0.0
 11
403.5301822989509
 21
954.5777597855705
 31
0.0
  0
LINE
  5
B5FE
330
1F
100
AcDbEntity
  8
0
 62
     0
 48
0.5
100
AcDbLine
 10
405.1521438231779
 20
957.2670795534538
 30
0.0
 11
405.0701822989509
 21
957.2451180292267
 31
0.0
  0
LINE
  5
B5FF
330
1F
100
AcDbEntity
  8
0
 62
     0
 48
0.5
100
AcDbLine
 10
418.185137000792
 20
949.8078532889341
 30
0.0
 11
420.525137000792
 21
949.8078532889339
 31
0.0
  0
LINE
  5
B600
330
1F
100
AcDbEntity
  8
0
 62
     0
 48
0.5
100
AcDbLine
 10
420.5851370007921
 20
949.747853288934
 30
0.0
 11
420.5851370007921
 21
948.607853288934
 31
0.0
  0
LINE
  5
B601
330
1F
100
AcDbEntity
  8
0
 62
     0
 48
0.5
100
AcDbLine
 10
420.525137000792
 20
949.8078532889339
 30
0.0
 11
420.5851370007921
 21
949.747853288934
 31
0.0
  0
LINE
  5
B602
330
1F
100
AcDbEntity
  8
0
 62
     0
 48
0.5
100
AcDbLine
 10
416.2551524268319
 20
947.6289533133256
 30
0.0
 11
415.3072437761597
 21
948.1762286279584
 31
0.0
  0
LINE
  5
B603
330
1F
100
AcDbEntity
  8
0
 62
     0
 48
0.5
100
AcDbLine
 10
417.5441531942038
 20
949.6506693919398
 30
0.0
 11
416.2612034982011
 21
950.3913807442838
 31
0.0
  0
LINE
  5
B604
330
1F
100
AcDbEntity
  8
0
 62
     0
 48
0.5
100
AcDbLine
 10
416.3585125481486
 20
950.7970795534538
 30
0.0
 11
414.7585125481486
 21
948.0257982613435
 31
0.0
  0
LINE
  5
B606
330
1F
100
AcDbEntity
  8
0
 62
     0
 48
0.5
100
AcDbLine
 10
416.1585125481487
 20
950.4506693919399
 30
0.0
 11
416.2612034982011
 21
950.3913807442838
 31
0.0
  0
LINE
  5
B607
330
1F
100
AcDbEntity
  8
0
 62
     0
 48
0.5
100
AcDbLine
 10
415.3049227096624
 20
948.1722084228573
 30
0.0
 11
414.9585125481486
 21
948.3722084228574
 31
0.0
  0
LINE
  5
B608
330
1F
100
AcDbEntity
  8
0
 62
     0
 48
0.5
100
AcDbLine
 10
420.5344020979987
 20
947.4171183861407
 30
0.0
 11
416.8805501094948
 21
947.412419651224
 31
0.0
  0
LINE
  5
B609
330
1F
100
AcDbEntity
  8
0
 62
     0
 48
0.5
100
AcDbLine
 10
418.1851370007921
 20
947.4078532889341
 30
0.0
 11
418.185137000792
 21
949.8078532889341
 31
0.0
  0
ARC
  5
B60A
330
1F
100
AcDbEntity
  8
0
 62
     0
 48
0.5
100
AcDbCircle
 10
416.9441531942037
 20
948.6114389073987
 30
0.0
 40
1.2
100
AcDbArc
 50
239.9999999999999
 51
59.99999999999999
  0
LINE
  5
B60B
330
1F
100
AcDbEntity
  8
0
 62
     0
 48
0.5
100
AcDbLine
 10
417.2799431086804
 20
949.8032111559394
 30
0.0
 11
418.1851370007921
 21
949.8032111559394
 31
0.0
  0
ARC
  5
B60C
330
1F
100
AcDbEntity
  8
0
 62
     0
 48
0.5
100
AcDbCircle
 10
416.985137000792
 20
948.607853288934
 30
0.0
 40
1.2
100
AcDbArc
 50
263.0364616477286
 51
264.9999999999993
  0
LINE
  5
B60D
330
1F
100
AcDbEntity
  8
0
 62
     0
 48
0.5
100
AcDbLine
 10
416.3441531942037
 20
947.5722084228573
 30
0.0
 11
416.2551524268319
 21
947.6289533133256
 31
0.0
  0
CIRCLE
  5
B60E
330
1F
100
AcDbEntity
  8
0
 62
     0
 48
0.5
100
AcDbCircle
 10
416.985137000792
 20
948.607853288934
 30
0.0
 40
0.4200000000000001
  0
LINE
  5
B610
330
1F
100
AcDbEntity
  8
0
 62
     0
 48
0.5
100
AcDbLine
 10
420.5344020979987
 20
947.4171183861407
 30
0.0
 11
420.5944020979987
 21
947.4771183861408
 31
0.0
  0
LINE
  5
B61B
330
1F
100
AcDbEntity
  8
Object
 62
     0
 48
0.5
100
AcDbLine
 10
420.5851370007921
 20
949.776293288934
 30
0.0
 11
420.5851370007921
 21
947.439413288934
 31
0.0
  0
LINE
  5
B61C
330
1F
100
AcDbEntity
  8
Object
 62
     0
 48
0.5
100
AcDbLine
 10
420.9296770007921
 20
949.806253288934
 30
0.0
 11
420.6150970007921
 21
949.806253288934
 31
0.0
  0
LINE
  5
B61D
330
1F
100
AcDbEntity
  8
Object
 62
     0
 48
0.5
100
AcDbLine
 10
420.6150970007921
 20
949.806253288934
 30
0.0
 11
420.5851370007921
 21
949.776293288934
 31
0.0
  0
LINE
  5
B61E
330
1F
100
AcDbEntity
  8
Object
 62
     0
 48
0.5
100
AcDbLine
 10
420.959637000792
 20
947.439413288934
 30
0.0
 11
420.959637000792
 21
948.607853288934
 31
0.0
  0
LINE
  5
B61F
330
1F
100
AcDbEntity
  8
Object
 62
     0
 48
0.5
100
AcDbLine
 10
420.6150970007921
 20
947.409453288934
 30
0.0
 11
420.9296770007921
 21
947.409453288934
 31
0.0
  0
LINE
  5
B620
330
1F
100
AcDbEntity
  8
Object
 62
     0
 48
0.5
100
AcDbLine
 10
420.959637000792
 20
947.439413288934
 30
0.0
 11
420.9296770007921
 21
947.409453288934
 31
0.0
  0
LINE
  5
B621
330
1F
100
AcDbEntity
  8
Object
 62
     0
 48
0.5
100
AcDbLine
 10
420.5851370007921
 20
947.439413288934
 30
0.0
 11
420.6150970007921
 21
947.409453288934
 31
0.0
  0
LINE
  5
B622
330
1F
100
AcDbEntity
  8
Object
 62
     0
 48
0.5
100
AcDbLine
 10
420.9296770007921
 20
949.806253288934
 30
0.0
 11
420.959637000792
 21
949.776293288934
 31
0.0
  0
LINE
  5
B623
330
1F
100
AcDbEntity
  8
Object
 62
     0
 48
0.5
100
AcDbLine
 10
420.959637000792
 20
948.9181521491511
 30
0.0
 11
420.5851370007921
 21
948.607853288934
 31
0.0
  0
LINE
  5
B624
330
1F
100
AcDbEntity
  8
Object
 62
     0
 48
0.5
100
AcDbLine
 10
420.959637000792
 20
948.607853288934
 30
0.0
 11
420.959637000792
 21
949.776293288934
 31
0.0
  0
LINE
  5
B625
330
1F
100
AcDbEntity
  8
Object
 62
     0
 48
0.5
100
AcDbLine
 10
420.959637000792
 20
914.8078532889348
 30
0.0
 11
420.959637000792
 21
915.9762932889348
 31
0.0
  0
LINE
  5
B626
330
1F
100
AcDbEntity
  8
Object
 62
     0
 48
0.5
100
AcDbLine
 10
420.959637000792
 20
915.1181521491517
 30
0.0
 11
420.585137000792
 21
914.8078532889348
 31
0.0
  0
LINE
  5
B627
330
1F
100
AcDbEntity
  8
Object
 62
     0
 48
0.5
100
AcDbLine
 10
420.929677000792
 20
916.0062532889348
 30
0.0
 11
420.959637000792
 21
915.9762932889348
 31
0.0
  0
LINE
  5
B628
330
1F
100
AcDbEntity
  8
Object
 62
     0
 48
0.5
100
AcDbLine
 10
420.585137000792
 20
913.6394132889348
 30
0.0
 11
420.615097000792
 21
913.6094532889348
 31
0.0
  0
LINE
  5
B629
330
1F
100
AcDbEntity
  8
Object
 62
     0
 48
0.5
100
AcDbLine
 10
420.959637000792
 20
913.6394132889348
 30
0.0
 11
420.929677000792
 21
913.6094532889348
 31
0.0
  0
LINE
  5
B62A
330
1F
100
AcDbEntity
  8
Object
 62
     0
 48
0.5
100
AcDbLine
 10
420.615097000792
 20
913.6094532889348
 30
0.0
 11
420.929677000792
 21
913.6094532889348
 31
0.0
  0
LINE
  5
B62B
330
1F
100
AcDbEntity
  8
Object
 62
     0
 48
0.5
100
AcDbLine
 10
420.959637000792
 20
913.6394132889348
 30
0.0
 11
420.959637000792
 21
914.8078532889348
 31
0.0
  0
LINE
  5
B62C
330
1F
100
AcDbEntity
  8
Object
 62
     0
 48
0.5
100
AcDbLine
 10
420.615097000792
 20
916.0062532889348
 30
0.0
 11
420.585137000792
 21
915.9762932889348
 31
0.0
  0
LINE
  5
B62D
330
1F
100
AcDbEntity
  8
Object
 62
     0
 48
0.5
100
AcDbLine
 10
420.929677000792
 20
916.0062532889348
 30
0.0
 11
420.615097000792
 21
916.0062532889348
 31
0.0
  0
LINE
  5
B62E
330
1F
100
AcDbEntity
  8
Object
 62
     0
 48
0.5
100
AcDbLine
 10
420.585137000792
 20
915.9762932889348
 30
0.0
 11
420.585137000792
 21
913.6394132889348
 31
0.0
  0
LINE
  5
B62F
330
1F
100
AcDbEntity
  8
0
 62
     0
 48
0.5
100
AcDbLine
 10
403.5301822989509
 20
954.5777597855705
 30
0.0
 11
405.0701822989509
 21
957.2451180292267
 31
0.0
  0
LINE
  5
B636
330
1F
100
AcDbEntity
  8
0
 62
     0
 48
0.5
100
AcDbLine
 10
141.7483609792475
 20
1111.349552003707
 30
0.0
 11
273.2889062774061
 21
1033.706523411946
 31
0.0
  0
LINE
  5
B637
330
1F
100
AcDbEntity
  8
0
 62
     0
 48
0.5
100
AcDbLine
 10
141.3483609792474
 20
1110.656731680679
 30
0.0
 11
273.2889062774061
 21
1032.777599373776
 31
0.0
  0
LINE
  5
B638
330
1F
100
AcDbEntity
  8
0
 62
     0
 48
0.5
100
AcDbLine
 10
274.8889062774061
 20
1031.833184513208
 30
0.0
 11
404.1001822989509
 21
955.5650287458847
 31
0.0
  0
LINE
  5
B639
330
1F
100
AcDbEntity
  8
0
 62
     0
 48
0.5
100
AcDbLine
 10
274.8889062774061
 20
1032.762108551378
 30
0.0
 11
404.5001822989509
 21
956.2578490689123
 31
0.0
  0
LINE
  5
B63A
330
1F
100
AcDbEntity
  8
0
 62
     0
 48
0.5
100
AcDbLine
 10
129.4900307300496
 20
1082.317501196138
 30
0.0
 11
140.6963994550202
 21
1075.847501196138
 31
0.0
  0
LINE
  5
B63B
330
1F
100
AcDbEntity
  8
0
 62
     0
 48
0.5
100
AcDbLine
 10
140.7783609792472
 20
1075.869462720364
 30
0.0
 11
142.3183609792473
 21
1078.53682096402
 31
0.0
  0
LINE
  5
B63C
330
1F
100
AcDbEntity
  8
0
 62
     0
 48
0.5
100
AcDbLine
 10
140.6963994550202
 20
1075.847501196138
 30
0.0
 11
140.7783609792472
 21
1075.869462720364
 31
0.0
  0
LINE
  5
B63D
330
1F
100
AcDbEntity
  8
0
 62
     0
 48
0.5
100
AcDbLine
 10
127.6634062774062
 20
1083.306727460658
 30
0.0
 11
125.3234062774061
 21
1083.306727460658
 31
0.0
  0
LINE
  5
B63E
330
1F
100
AcDbEntity
  8
0
 62
     0
 48
0.5
100
AcDbLine
 10
125.3141411801995
 20
1085.697462363451
 30
0.0
 11
128.9679931687033
 21
1085.702161098367
 31
0.0
  0
LINE
  5
B63F
330
1F
100
AcDbEntity
  8
0
 62
     0
 48
0.5
100
AcDbLine
 10
125.263406277406
 20
1084.506727460657
 30
0.0
 11
125.2541411801995
 21
1085.637462363451
 31
0.0
  0
LINE
  5
B640
330
1F
100
AcDbEntity
  8
0
 62
     0
 48
0.5
100
AcDbLine
 10
125.2634062774061
 20
1083.366727460657
 30
0.0
 11
125.263406277406
 21
1084.506727460657
 31
0.0
  0
LINE
  5
B641
330
1F
100
AcDbEntity
  8
0
 62
     0
 48
0.5
100
AcDbLine
 10
125.3234062774061
 20
1083.306727460658
 30
0.0
 11
125.2634062774061
 21
1083.366727460657
 31
0.0
  0
LINE
  5
B642
330
1F
100
AcDbEntity
  8
0
 62
     0
 48
0.5
100
AcDbLine
 10
125.3141411801995
 20
1085.697462363451
 30
0.0
 11
125.2541411801995
 21
1085.637462363451
 31
0.0
  0
LINE
  5
B643
330
1F
100
AcDbEntity
  8
0
 62
     0
 48
0.5
100
AcDbLine
 10
124.888906277406
 20
1084.365813007439
 30
0.0
 11
125.263406277406
 21
1084.695892589462
 31
0.0
  0
LINE
  5
B644
330
1F
100
AcDbEntity
  8
Object
 62
     0
 48
0.5
100
AcDbLine
 10
125.263406277406
 20
1083.338287460657
 30
0.0
 11
125.263406277406
 21
1084.506727460657
 31
0.0
  0
LINE
  5
B645
330
1F
100
AcDbEntity
  8
Object
 62
     0
 48
0.5
100
AcDbLine
 10
125.263406277406
 20
1084.506727460657
 30
0.0
 11
125.263406277406
 21
1085.675167460657
 31
0.0
  0
LINE
  5
B646
330
1F
100
AcDbEntity
  8
Object
 62
     0
 48
0.5
100
AcDbLine
 10
125.2334462774061
 20
1085.705127460657
 30
0.0
 11
124.918866277406
 21
1085.705127460657
 31
0.0
  0
LINE
  5
B647
330
1F
100
AcDbEntity
  8
Object
 62
     0
 48
0.5
100
AcDbLine
 10
124.918866277406
 20
1085.705127460657
 30
0.0
 11
124.888906277406
 21
1085.675167460657
 31
0.0
  0
LINE
  5
B648
330
1F
100
AcDbEntity
  8
Object
 62
     0
 48
0.5
100
AcDbLine
 10
125.2334462774061
 20
1085.705127460657
 30
0.0
 11
125.263406277406
 21
1085.675167460657
 31
0.0
  0
LINE
  5
B649
330
1F
100
AcDbEntity
  8
Object
 62
     0
 48
0.5
100
AcDbLine
 10
124.888906277406
 20
1085.675167460657
 30
0.0
 11
124.888906277406
 21
1083.338287460657
 31
0.0
  0
LINE
  5
B64A
330
1F
100
AcDbEntity
  8
Object
 62
     0
 48
0.5
100
AcDbLine
 10
124.9188662774061
 20
1083.308327460657
 30
0.0
 11
125.2334462774061
 21
1083.308327460657
 31
0.0
  0
LINE
  5
B64B
330
1F
100
AcDbEntity
  8
Object
 62
     0
 48
0.5
100
AcDbLine
 10
124.888906277406
 20
1083.338287460657
 30
0.0
 11
124.9188662774061
 21
1083.308327460657
 31
0.0
  0
LINE
  5
B64C
330
1F
100
AcDbEntity
  8
Object
 62
     0
 48
0.5
100
AcDbLine
 10
125.263406277406
 20
1083.338287460657
 30
0.0
 11
125.2334462774061
 21
1083.308327460657
 31
0.0
  0
LINE
  5
B64D
330
1F
100
AcDbEntity
  8
0
 62
     0
 48
0.5
100
AcDbLine
 10
142.2963994550202
 20
1078.618782488248
 30
0.0
 11
131.0900307300496
 21
1085.088782488248
 31
0.0
  0
LINE
  5
B64E
330
1F
100
AcDbEntity
  8
0
 62
     0
 48
0.5
100
AcDbLine
 10
128.3043900839945
 20
1083.463911357651
 30
0.0
 11
129.5873397799971
 21
1082.723200005307
 31
0.0
  0
CIRCLE
  5
B64F
330
1F
100
AcDbEntity
  8
0
 62
     0
 48
0.5
100
AcDbCircle
 10
128.8634062774061
 20
1084.506727460657
 30
0.0
 40
0.4200000000000001
  0
ARC
  5
B650
330
1F
100
AcDbEntity
  8
0
 62
     0
 48
0.5
100
AcDbCircle
 10
128.9043900839945
 20
1084.503141842193
 30
0.0
 40
1.2
100
AcDbArc
 50
59.99999999999996
 51
239.9999999999999
  0
LINE
  5
B651
330
1F
100
AcDbEntity
  8
0
 62
     0
 48
0.5
100
AcDbLine
 10
127.6634062774062
 20
1085.706727460657
 30
0.0
 11
127.6634062774062
 21
1083.306727460658
 31
0.0
  0
LINE
  5
B652
330
1F
100
AcDbEntity
  8
0
 62
     0
 48
0.5
100
AcDbLine
 10
128.5686001695178
 20
1083.311369593652
 30
0.0
 11
127.6634062774062
 21
1083.311369593652
 31
0.0
  0
ARC
  5
B653
330
1F
100
AcDbEntity
  8
0
 62
     0
 48
0.5
100
AcDbCircle
 10
128.8634062774061
 20
1084.506727460657
 30
0.0
 40
1.2
100
AcDbArc
 50
83.03646164772866
 51
84.99999999999928
  0
LINE
  5
B654
330
1F
100
AcDbEntity
  8
0
 62
     0
 48
0.5
100
AcDbLine
 10
129.5933908513663
 20
1085.485627436266
 30
0.0
 11
130.5412995020385
 21
1084.938352121633
 31
0.0
  0
LINE
  5
B655
330
1F
100
AcDbEntity
  8
0
 62
     0
 48
0.5
100
AcDbLine
 10
131.0900307300496
 20
1085.088782488248
 30
0.0
 11
129.4900307300496
 21
1082.317501196138
 31
0.0
  0
LINE
  5
B656
330
1F
100
AcDbEntity
  8
0
 62
     0
 48
0.5
100
AcDbLine
 10
129.6900307300495
 20
1082.663911357651
 30
0.0
 11
130.8900307300496
 21
1084.742372326734
 31
0.0
  0
LINE
  5
B657
330
1F
100
AcDbEntity
  8
0
 62
     0
 48
0.5
100
AcDbLine
 10
130.8900307300496
 20
1084.742372326734
 30
0.0
 11
129.6900307300496
 21
1082.663911357651
 31
0.0
  0
LINE
  5
B658
330
1F
100
AcDbEntity
  8
0
 62
     0
 48
0.5
100
AcDbLine
 10
129.6900307300495
 20
1082.663911357651
 30
0.0
 11
129.5873397799971
 21
1082.723200005307
 31
0.0
  0
LINE
  5
B659
330
1F
100
AcDbEntity
  8
0
 62
     0
 48
0.5
100
AcDbLine
 10
130.5436205685358
 20
1084.942372326734
 30
0.0
 11
130.8900307300496
 21
1084.742372326734
 31
0.0
  0
LINE
  5
B65A
330
1F
100
AcDbEntity
  8
0
 62
     0
 48
0.5
100
AcDbLine
 10
129.5043900839945
 20
1085.542372326734
 30
0.0
 11
129.5933908513663
 21
1085.485627436266
 31
0.0
  0
LINE
  5
B65B
330
1F
100
AcDbEntity
  8
0
 62
     0
 48
0.5
100
AcDbLine
 10
142.2963994550202
 20
1078.618782488248
 30
0.0
 11
142.3183609792473
 21
1078.53682096402
 31
0.0
  0
LINE
  5
B65C
330
1F
100
AcDbEntity
  8
0
 62
     0
 48
0.5
100
AcDbLine
 10
141.7483609792474
 20
1077.549552003707
 30
0.0
 11
273.2889062774061
 21
999.9065234119461
 31
0.0
  0
LINE
  5
B65D
330
1F
100
AcDbEntity
  8
0
 62
     0
 48
0.5
100
AcDbLine
 10
141.3483609792474
 20
1076.856731680679
 30
0.0
 11
273.2889062774061
 21
998.9775993737767
 31
0.0
  0
LINE
  5
B65E
330
1F
100
AcDbEntity
  8
0
 62
     0
 48
0.5
100
AcDbLine
 10
274.8889062774061
 20
998.9621085513782
 30
0.0
 11
404.5001822989509
 21
922.4578490689124
 31
0.0
  0
LINE
  5
B65F
330
1F
100
AcDbEntity
  8
0
 62
     0
 48
0.5
100
AcDbLine
 10
274.8889062774061
 20
998.0331845132086
 30
0.0
 11
404.1001822989509
 21
921.7650287458848
 31
0.0
  0
LINE
  5
B660
330
1F
100
AcDbEntity
  8
0
 62
     0
 48
0.5
100
AcDbLine
 10
405.1521438231779
 20
923.4670795534539
 30
0.0
 11
416.3585125481486
 21
916.9970795534537
 31
0.0
  0
LINE
  5
B661
330
1F
100
AcDbEntity
  8
0
 62
     0
 48
0.5
100
AcDbLine
 10
414.7585125481486
 20
914.2257982613436
 30
0.0
 11
403.552143823178
 21
920.6957982613436
 31
0.0
  0
LINE
  5
B662
330
1F
100
AcDbEntity
  8
0
 62
     0
 48
0.5
100
AcDbLine
 10
403.5301822989509
 20
920.7777597855706
 30
0.0
 11
405.0701822989509
 21
923.4451180292266
 31
0.0
  0
LINE
  5
B663
330
1F
100
AcDbEntity
  8
0
 62
     0
 48
0.5
100
AcDbLine
 10
403.552143823178
 20
920.6957982613436
 30
0.0
 11
403.5301822989509
 21
920.7777597855706
 31
0.0
  0
LINE
  5
B664
330
1F
100
AcDbEntity
  8
0
 62
     0
 48
0.5
100
AcDbLine
 10
405.1521438231779
 20
923.4670795534539
 30
0.0
 11
405.0701822989509
 21
923.4451180292266
 31
0.0
  0
LINE
  5
B665
330
1F
100
AcDbEntity
  8
0
 62
     0
 48
0.5
100
AcDbLine
 10
415.3049227096624
 20
914.3722084228574
 30
0.0
 11
414.9585125481486
 21
914.5722084228575
 31
0.0
  0
LINE
  5
B666
330
1F
100
AcDbEntity
  8
0
 62
     0
 48
0.5
100
AcDbLine
 10
416.3585125481486
 20
916.9970795534537
 30
0.0
 11
414.7585125481486
 21
914.2257982613436
 31
0.0
  0
LINE
  5
B667
330
1F
100
AcDbEntity
  8
Object
 62
     0
 48
0.5
100
AcDbLine
 10
420.5851370007921
 20
915.9762932889341
 30
0.0
 11
420.5851370007921
 21
913.6394132889341
 31
0.0
  0
LINE
  5
B668
330
1F
100
AcDbEntity
  8
0
 62
     0
 48
0.5
100
AcDbLine
 10
420.5344020979987
 20
913.6171183861408
 30
0.0
 11
416.8805501094948
 21
913.6124196512239
 31
0.0
  0
LINE
  5
B669
330
1F
100
AcDbEntity
  8
0
 62
     0
 48
0.5
100
AcDbLine
 10
417.2799431086804
 20
916.0032111559393
 30
0.0
 11
418.1851370007921
 21
916.0032111559395
 31
0.0
  0
ARC
  5
B66A
330
1F
100
AcDbEntity
  8
0
 62
     0
 48
0.5
100
AcDbCircle
 10
416.985137000792
 20
914.8078532889341
 30
0.0
 40
1.2
100
AcDbArc
 50
263.0364616477286
 51
264.9999999999993
  0
LINE
  5
B66B
330
1F
100
AcDbEntity
  8
0
 62
     0
 48
0.5
100
AcDbLine
 10
418.185137000792
 20
916.0078532889341
 30
0.0
 11
420.525137000792
 21
916.007853288934
 31
0.0
  0
LINE
  5
B66C
330
1F
100
AcDbEntity
  8
0
 62
     0
 48
0.5
100
AcDbLine
 10
418.1851370007921
 20
913.6078532889341
 30
0.0
 11
418.185137000792
 21
916.0078532889341
 31
0.0
  0
LINE
  5
B66D
330
1F
100
AcDbEntity
  8
0
 62
     0
 48
0.5
100
AcDbLine
 10
420.5851370007921
 20
915.9478532889341
 30
0.0
 11
420.5851370007921
 21
914.8078532889341
 31
0.0
  0
LINE
  5
B66E
330
1F
100
AcDbEntity
  8
0
 62
     0
 48
0.5
100
AcDbLine
 10
420.5344020979987
 20
913.6171183861408
 30
0.0
 11
420.5944020979987
 21
913.6771183861409
 31
0.0
  0
LINE
  5
B66F
330
1F
100
AcDbEntity
  8
0
 62
     0
 48
0.5
100
AcDbLine
 10
420.525137000792
 20
916.007853288934
 30
0.0
 11
420.5851370007921
 21
915.9478532889341
 31
0.0
  0
LINE
  5
B670
330
1F
100
AcDbEntity
  8
0
 62
     0
 48
0.5
100
AcDbLine
 10
416.2551524268319
 20
913.8289533133256
 30
0.0
 11
415.3072437761597
 21
914.3762286279585
 31
0.0
  0
LINE
  5
B671
330
1F
100
AcDbEntity
  8
0
 62
     0
 48
0.5
100
AcDbLine
 10
416.3441531942037
 20
913.7722084228574
 30
0.0
 11
416.2551524268319
 21
913.8289533133256
 31
0.0
  0
LINE
  5
B672
330
1F
100
AcDbEntity
  8
0
 62
     0
 48
0.5
100
AcDbLine
 10
416.1585125481487
 20
916.65066939194
 30
0.0
 11
416.2612034982011
 21
916.5913807442837
 31
0.0
  0
LINE
  5
B673
330
1F
100
AcDbEntity
  8
0
 62
     0
 48
0.5
100
AcDbLine
 10
417.5441531942038
 20
915.8506693919399
 30
0.0
 11
416.2612034982011
 21
916.5913807442837
 31
0.0
  0
ARC
  5
B674
330
1F
100
AcDbEntity
  8
0
 62
     0
 48
0.5
100
AcDbCircle
 10
416.9441531942037
 20
914.8114389073986
 30
0.0
 40
1.2
100
AcDbArc
 50
239.9999999999999
 51
59.99999999999999
  0
CIRCLE
  5
B675
330
1F
100
AcDbEntity
  8
0
 62
     0
 48
0.5
100
AcDbCircle
 10
416.985137000792
 20
914.8078532889341
 30
0.0
 40
0.4200000000000001
  0
LINE
  5
B676
330
1F
100
AcDbEntity
  8
Object
 62
     0
 48
0.5
100
AcDbLine
 10
420.959637000792
 20
914.8078532889341
 30
0.0
 11
420.959637000792
 21
915.9762932889341
 31
0.0
  0
LINE
  5
B677
330
1F
100
AcDbEntity
  8
Object
 62
     0
 48
0.5
100
AcDbLine
 10
420.959637000792
 20
915.118152149151
 30
0.0
 11
420.5851370007921
 21
914.8078532889341
 31
0.0
  0
LINE
  5
B678
330
1F
100
AcDbEntity
  8
Object
 62
     0
 48
0.5
100
AcDbLine
 10
420.9296770007921
 20
916.0062532889341
 30
0.0
 11
420.959637000792
 21
915.9762932889341
 31
0.0
  0
LINE
  5
B679
330
1F
100
AcDbEntity
  8
Object
 62
     0
 48
0.5
100
AcDbLine
 10
420.5851370007921
 20
913.6394132889341
 30
0.0
 11
420.6150970007921
 21
913.6094532889341
 31
0.0
  0
LINE
  5
B67A
330
1F
100
AcDbEntity
  8
Object
 62
     0
 48
0.5
100
AcDbLine
 10
420.959637000792
 20
913.6394132889341
 30
0.0
 11
420.9296770007921
 21
913.6094532889341
 31
0.0
  0
LINE
  5
B67B
330
1F
100
AcDbEntity
  8
Object
 62
     0
 48
0.5
100
AcDbLine
 10
420.6150970007921
 20
913.6094532889341
 30
0.0
 11
420.9296770007921
 21
913.6094532889341
 31
0.0
  0
LINE
  5
B67C
330
1F
100
AcDbEntity
  8
Object
 62
     0
 48
0.5
100
AcDbLine
 10
420.959637000792
 20
913.6394132889341
 30
0.0
 11
420.959637000792
 21
914.8078532889341
 31
0.0
  0
LINE
  5
B67D
330
1F
100
AcDbEntity
  8
Object
 62
     0
 48
0.5
100
AcDbLine
 10
420.6150970007921
 20
916.0062532889341
 30
0.0
 11
420.5851370007921
 21
915.9762932889341
 31
0.0
  0
LINE
  5
B67E
330
1F
100
AcDbEntity
  8
Object
 62
     0
 48
0.5
100
AcDbLine
 10
420.9296770007921
 20
916.0062532889341
 30
0.0
 11
420.6150970007921
 21
916.0062532889341
 31
0.0
  0
LINE
  5
B686
330
1F
100
AcDbEntity
  8
0
 62
     0
 48
0.5
100
AcDbLine
 10
554.0840581294962
 20
1015.956524381402
 30
0.0
 11
554.5694593422013
 21
1016.669150451899
 31
0.0
  0
LINE
  5
B687
330
1F
100
AcDbEntity
  8
0
 62
     0
 48
0.5
100
AcDbLine
 10
554.0840581294962
 20
1015.956524381402
 30
0.0
 11
554.1788586465875
 21
1011.362422681939
 31
0.0
  0
LINE
  5
B68A
330
1F
100
AcDbEntity
  8
0
 62
     0
 48
0.5
100
AcDbLine
 10
562.1314583880417
 20
1011.313776875774
 30
0.0
 11
561.6932445947218
 21
1010.670427486862
 31
0.0
  0
LINE
  5
B68B
330
1F
100
AcDbEntity
  8
0
 62
     0
 48
0.5
100
AcDbLine
 10
562.0838452903357
 20
1015.977155256822
 30
0.0
 11
561.5694593422014
 21
1016.669150451899
 31
0.0
  0
LINE
  5
B68C
330
1F
100
AcDbEntity
  8
0
 62
     0
 48
0.5
100
AcDbLine
 10
561.0840581294962
 20
1015.956524381402
 30
0.0
 11
561.1788586465875
 21
1011.362422681939
 31
0.0
  0
LINE
  5
B68D
330
1F
100
AcDbEntity
  8
0
 62
     0
 48
0.5
100
AcDbLine
 10
561.1788586465875
 20
1011.362422681939
 30
0.0
 11
561.6932445947218
 21
1010.670427486862
 31
0.0
  0
LINE
  5
B68E
330
1F
100
AcDbEntity
  8
0
 62
     0
 48
0.5
100
AcDbLine
 10
561.0840581294962
 20
1015.956524381402
 30
0.0
 11
561.5694593422014
 21
1016.669150451899
 31
0.0
  0
LINE
  5
B68F
330
1F
100
AcDbEntity
  8
0
 62
     0
 48
0.5
100
AcDbLine
 10
561.5694593422014
 20
1016.669150451899
 30
0.0
 11
561.6932445947218
 21
1010.670427486862
 31
0.0
  0
LINE
  5
B690
330
1F
100
AcDbEntity
  8
0
 62
     0
 48
0.5
100
AcDbLine
 10
561.1786458074268
 20
1011.383053557359
 30
0.0
 11
560.6932445947218
 21
1010.670427486862
 31
0.0
  0
LINE
  5
B691
330
1F
100
AcDbEntity
  8
0
 62
     0
 48
0.5
100
AcDbLine
 10
561.0838452903357
 20
1015.977155256822
 30
0.0
 11
560.5694593422014
 21
1016.669150451899
 31
0.0
  0
LINE
  5
B692
330
1F
100
AcDbEntity
  8
0
 62
     0
 48
0.5
100
AcDbLine
 10
560.5694593422014
 20
1016.669150451899
 30
0.0
 11
560.6932445947218
 21
1010.670427486862
 31
0.0
  0
LINE
  5
B693
330
1F
100
AcDbEntity
  8
0
 62
     0
 48
0.5
100
AcDbLine
 10
560.0840581294963
 20
1015.956524381402
 30
0.0
 11
560.1788586465874
 21
1011.362422681939
 31
0.0
  0
LINE
  5
B694
330
1F
100
AcDbEntity
  8
0
 62
     0
 48
0.5
100
AcDbLine
 10
559.0840581294962
 20
1015.956524381402
 30
0.0
 11
559.1788586465875
 21
1011.362422681939
 31
0.0
  0
LINE
  5
B695
330
1F
100
AcDbEntity
  8
0
 62
     0
 48
0.5
100
AcDbLine
 10
560.1786458074268
 20
1011.383053557359
 30
0.0
 11
559.6932445947218
 21
1010.670427486862
 31
0.0
  0
LINE
  5
B696
330
1F
100
AcDbEntity
  8
0
 62
     0
 48
0.5
100
AcDbLine
 10
559.1788586465875
 20
1011.362422681939
 30
0.0
 11
559.6932445947218
 21
1010.670427486862
 31
0.0
  0
LINE
  5
B697
330
1F
100
AcDbEntity
  8
0
 62
     0
 48
0.5
100
AcDbLine
 10
560.0838452903357
 20
1015.977155256822
 30
0.0
 11
559.5694593422014
 21
1016.669150451899
 31
0.0
  0
LINE
  5
B698
330
1F
100
AcDbEntity
  8
0
 62
     0
 48
0.5
100
AcDbLine
 10
559.0840581294962
 20
1015.956524381402
 30
0.0
 11
559.5694593422014
 21
1016.669150451899
 31
0.0
  0
LINE
  5
B699
330
1F
100
AcDbEntity
  8
0
 62
     0
 48
0.5
100
AcDbLine
 10
559.5694593422014
 20
1016.669150451899
 30
0.0
 11
559.6932445947218
 21
1010.670427486862
 31
0.0
  0
LINE
  5
B69A
330
1F
100
AcDbEntity
  8
0
 62
     0
 48
0.5
100
AcDbLine
 10
558.0840581294962
 20
1015.956524381402
 30
0.0
 11
558.1788586465875
 21
1011.362422681939
 31
0.0
  0
LINE
  5
B69B
330
1F
100
AcDbEntity
  8
0
 62
     0
 48
0.5
100
AcDbLine
 10
559.1786458074268
 20
1011.383053557359
 30
0.0
 11
558.6932445947218
 21
1010.670427486862
 31
0.0
  0
LINE
  5
B69C
330
1F
100
AcDbEntity
  8
0
 62
     0
 48
0.5
100
AcDbLine
 10
558.1788586465875
 20
1011.362422681939
 30
0.0
 11
558.6932445947218
 21
1010.670427486862
 31
0.0
  0
LINE
  5
B69D
330
1F
100
AcDbEntity
  8
0
 62
     0
 48
0.5
100
AcDbLine
 10
559.0838452903357
 20
1015.977155256822
 30
0.0
 11
558.5694593422013
 21
1016.669150451899
 31
0.0
  0
LINE
  5
B69E
330
1F
100
AcDbEntity
  8
0
 62
     0
 48
0.5
100
AcDbLine
 10
558.0840581294962
 20
1015.956524381402
 30
0.0
 11
558.5694593422013
 21
1016.669150451899
 31
0.0
  0
LINE
  5
B69F
330
1F
100
AcDbEntity
  8
0
 62
     0
 48
0.5
100
AcDbLine
 10
558.5694593422013
 20
1016.669150451899
 30
0.0
 11
558.6932445947218
 21
1010.670427486862
 31
0.0
  0
LINE
  5
B6A0
330
1F
100
AcDbEntity
  8
0
 62
     0
 48
0.5
100
AcDbLine
 10
557.0840581294962
 20
1015.956524381402
 30
0.0
 11
557.1788586465875
 21
1011.362422681939
 31
0.0
  0
LINE
  5
B6A1
330
1F
100
AcDbEntity
  8
0
 62
     0
 48
0.5
100
AcDbLine
 10
558.1786458074268
 20
1011.383053557359
 30
0.0
 11
557.6932445947218
 21
1010.670427486862
 31
0.0
  0
LINE
  5
B6A2
330
1F
100
AcDbEntity
  8
0
 62
     0
 48
0.5
100
AcDbLine
 10
557.1788586465875
 20
1011.362422681939
 30
0.0
 11
557.6932445947218
 21
1010.670427486862
 31
0.0
  0
LINE
  5
B6A3
330
1F
100
AcDbEntity
  8
0
 62
     0
 48
0.5
100
AcDbLine
 10
558.0838452903357
 20
1015.977155256822
 30
0.0
 11
557.5694593422014
 21
1016.669150451899
 31
0.0
  0
LINE
  5
B6A4
330
1F
100
AcDbEntity
  8
0
 62
     0
 48
0.5
100
AcDbLine
 10
557.0840581294962
 20
1015.956524381402
 30
0.0
 11
557.5694593422014
 21
1016.669150451899
 31
0.0
  0
LINE
  5
B6A5
330
1F
100
AcDbEntity
  8
0
 62
     0
 48
0.5
100
AcDbLine
 10
557.5694593422014
 20
1016.669150451899
 30
0.0
 11
557.6932445947218
 21
1010.670427486862
 31
0.0
  0
LINE
  5
B6A6
330
1F
100
AcDbEntity
  8
0
 62
     0
 48
0.5
100
AcDbLine
 10
556.0840581294963
 20
1015.956524381402
 30
0.0
 11
556.1788586465874
 21
1011.362422681939
 31
0.0
  0
LINE
  5
B6A7
330
1F
100
AcDbEntity
  8
0
 62
     0
 48
0.5
100
AcDbLine
 10
557.1786458074268
 20
1011.383053557359
 30
0.0
 11
556.6932445947218
 21
1010.670427486862
 31
0.0
  0
LINE
  5
B6A8
330
1F
100
AcDbEntity
  8
0
 62
     0
 48
0.5
100
AcDbLine
 10
556.1788586465874
 20
1011.362422681939
 30
0.0
 11
556.6932445947218
 21
1010.670427486862
 31
0.0
  0
LINE
  5
B6A9
330
1F
100
AcDbEntity
  8
0
 62
     0
 48
0.5
100
AcDbLine
 10
557.0838452903357
 20
1015.977155256822
 30
0.0
 11
556.5694593422014
 21
1016.669150451899
 31
0.0
  0
LINE
  5
B6AA
330
1F
100
AcDbEntity
  8
0
 62
     0
 48
0.5
100
AcDbLine
 10
556.0840581294963
 20
1015.956524381402
 30
0.0
 11
556.5694593422014
 21
1016.669150451899
 31
0.0
  0
LINE
  5
B6AB
330
1F
100
AcDbEntity
  8
0
 62
     0
 48
0.5
100
AcDbLine
 10
556.5694593422014
 20
1016.669150451899
 30
0.0
 11
556.6932445947218
 21
1010.670427486862
 31
0.0
  0
LINE
  5
B6AC
330
1F
100
AcDbEntity
  8
0
 62
     0
 48
0.5
100
AcDbLine
 10
555.0840581294962
 20
1015.956524381402
 30
0.0
 11
555.1788586465875
 21
1011.362422681939
 31
0.0
  0
LINE
  5
B6AD
330
1F
100
AcDbEntity
  8
0
 62
     0
 48
0.5
100
AcDbLine
 10
556.1786458074268
 20
1011.383053557359
 30
0.0
 11
555.6932445947218
 21
1010.670427486862
 31
0.0
  0
LINE
  5
B6AE
330
1F
100
AcDbEntity
  8
0
 62
     0
 48
0.5
100
AcDbLine
 10
555.1788586465875
 20
1011.362422681939
 30
0.0
 11
555.6932445947218
 21
1010.670427486862
 31
0.0
  0
LINE
  5
B6AF
330
1F
100
AcDbEntity
  8
0
 62
     0
 48
0.5
100
AcDbLine
 10
556.0838452903356
 20
1015.977155256822
 30
0.0
 11
555.5694593422014
 21
1016.669150451899
 31
0.0
  0
LINE
  5
B6B0
330
1F
100
AcDbEntity
  8
0
 62
     0
 48
0.5
100
AcDbLine
 10
555.0840581294962
 20
1015.956524381402
 30
0.0
 11
555.5694593422014
 21
1016.669150451899
 31
0.0
  0
LINE
  5
B6B1
330
1F
100
AcDbEntity
  8
0
 62
     0
 48
0.5
100
AcDbLine
 10
555.5694593422014
 20
1016.669150451899
 30
0.0
 11
555.6932445947218
 21
1010.670427486862
 31
0.0
  0
LINE
  5
B6B2
330
1F
100
AcDbEntity
  8
0
 62
     0
 48
0.5
100
AcDbLine
 10
554.5694593422013
 20
1016.669150451899
 30
0.0
 11
554.6932445947218
 21
1010.670427486862
 31
0.0
  0
LINE
  5
B6B3
330
1F
100
AcDbEntity
  8
0
 62
     0
 48
0.5
100
AcDbLine
 10
555.0838452903357
 20
1015.977155256822
 30
0.0
 11
554.5694593422013
 21
1016.669150451899
 31
0.0
  0
LINE
  5
B6B4
330
1F
100
AcDbEntity
  8
0
 62
     0
 48
0.5
100
AcDbLine
 10
554.1788586465875
 20
1011.362422681939
 30
0.0
 11
554.6932445947218
 21
1010.670427486862
 31
0.0
  0
LINE
  5
B6B5
330
1F
100
AcDbEntity
  8
0
 62
     0
 48
0.5
100
AcDbLine
 10
555.1786458074268
 20
1011.383053557359
 30
0.0
 11
554.6932445947218
 21
1010.670427486862
 31
0.0
  0
LINE
  5
B6B6
330
1F
100
AcDbEntity
  8
0
 62
     0
 48
0.5
100
AcDbLine
 10
560.1788586465874
 20
1011.362422681939
 30
0.0
 11
560.6932445947218
 21
1010.670427486862
 31
0.0
  0
LINE
  5
B6B7
330
1F
100
AcDbEntity
  8
0
 62
     0
 48
0.5
100
AcDbLine
 10
560.0840581294963
 20
1015.956524381402
 30
0.0
 11
560.5694593422014
 21
1016.669150451899
 31
0.0
  0
LINE
  5
B6DE
330
1F
100
AcDbEntity
  8
0
 62
     0
 48
0.5
100
AcDbLine
 10
562.0840581294962
 20
1015.956524381402
 30
0.0
 11
562.1314583880417
 21
1013.659473531676
 31
0.0
  0
LINE
  5
B6E2
330
1F
100
AcDbEntity
  8
0
 62
     0
 48
0.5
100
AcDbLine
 10
562.0840581294962
 20
1015.956524381402
 30
0.0
 11
562.1314583880417
 21
1016.026113535907
 31
0.0
  0
LINE
  5
B6E8
330
1F
100
AcDbEntity
  8
0
 62
     0
100
AcDbLine
 10
570.2749229758223
 20
1019.406917438099
 30
0.0
 11
574.681249452936
 21
1019.406917438099
 31
0.0
  0
LINE
  5
B6E9
330
1F
100
AcDbEntity
  8
0
 62
     0
100
AcDbLine
 10
574.6866918286482
 20
1007.911437288965
 30
0.0
 11
570.9318502205205
 21
1007.911437288965
 31
0.0
  0
LINE
  5
B6EA
330
1F
100
AcDbEntity
  8
0
 62
     0
100
AcDbLine
 10
574.6866918286482
 20
1007.911437288965
 30
0.0
 11
570.2749241986355
 21
1007.911437288965
 31
0.0
  0
LINE
  5
B6EB
330
1F
100
AcDbEntity
  8
0
 62
     0
100
AcDbLine
 10
574.6866918286482
 20
1010.780753500839
 30
0.0
 11
570.9318502205205
 21
1010.780753500839
 31
0.0
  0
LINE
  5
B6EC
330
1F
100
AcDbEntity
  8
0
 62
     0
100
AcDbLine
 10
574.6866918286482
 20
1016.519385924588
 30
0.0
 11
570.9318502205205
 21
1016.519385924588
 31
0.0
  0
LINE
  5
B6ED
330
1F
100
AcDbEntity
  8
0
 62
     0
100
AcDbLine
 10
570.2749229758223
 20
1019.406917438099
 30
0.0
 11
570.1314583880418
 21
1019.264043963783
 31
0.0
  0
LINE
  5
B6EE
330
1F
100
AcDbEntity
  8
0
 62
     0
100
AcDbLine
 10
570.2749241986355
 20
1007.911437288965
 30
0.0
 11
570.1314583880418
 21
1008.054903099558
 31
0.0
  0
LINE
  5
B6EF
330
1F
100
AcDbEntity
  8
0
 62
     0
100
AcDbLine
 10
570.9318502205205
 20
1010.780753500839
 30
0.0
 11
570.1314583880418
 21
1010.780753500839
 31
0.0
  0
LINE
  5
B6F2
330
1F
100
AcDbEntity
  8
0
 62
     0
100
AcDbLine
 10
570.9318502205205
 20
1016.519385924588
 30
0.0
 11
570.1314583880418
 21
1016.519385924588
 31
0.0
  0
LINE
  5
B6F3
330
1F
100
AcDbEntity
  8
0
 62
     0
100
AcDbLine
 10
570.1314583880418
 20
1008.054903099558
 30
0.0
 11
570.1314583880418
 21
1019.264043963783
 31
0.0
  0
LINE
  5
B6F4
330
1F
100
AcDbEntity
  8
0
 62
     0
100
AcDbLine
 10
575.2630775849159
 20
1009.346095394902
 30
0.0
 11
575.2466303565606
 21
1017.954044030525
 31
0.0
  0
ARC
  5
B6F5
330
1F
100
AcDbEntity
  8
0
 62
     0
100
AcDbCircle
 10
573.1894104314808
 20
1009.346095394902
 30
0.0
 40
2.073667153435057
100
AcDbArc
 50
316.2235944163291
 51
43.77640558367093
  0
ARC
  5
B6F6
330
1F
100
AcDbEntity
  8
0
 62
     0
100
AcDbCircle
 10
567.8581766534853
 20
1013.650069712714
 30
0.0
 40
7.406861347504564
100
AcDbArc
 50
337.2080385520313
 51
22.79196144796861
  0
ARC
  5
B6F7
330
1F
100
AcDbEntity
  8
0
 62
     0
100
AcDbCircle
 10
573.1287415904353
 20
1017.954044030525
 30
0.0
 40
2.117888766125186
100
AcDbArc
 50
317.3591881474103
 51
42.64081185258958
  0
LINE
  5
B6FC
330
1F
100
AcDbEntity
  8
0
 62
     0
 48
0.5
100
AcDbLine
 10
518.6127025957525
 20
1011.481249201279
 30
0.0
 11
516.8806517881839
 21
1012.48124920128
 31
0.0
  0
LINE
  5
B6FE
330
1F
100
AcDbEntity
  8
Object
 62
     0
 48
0.5
100
AcDbLine
 10
548.7131198753367
 20
1019.501673531663
 30
0.0
 11
548.7131198753367
 21
1007.817273531663
 31
0.0
  0
LINE
  5
B6FF
330
1F
100
AcDbEntity
  8
0
 62
     0
 48
0.5
100
AcDbLine
 10
544.7600995374341
 20
1007.705799017697
 30
0.0
 11
526.4908395949146
 21
1007.682305343113
 31
0.0
  0
LINE
  5
B700
330
1F
100
AcDbEntity
  8
0
 62
     0
 48
0.5
100
AcDbLine
 10
528.4878045908429
 20
1019.63626286669
 30
0.0
 11
533.013774051401
 21
1019.63626286669
 31
0.0
  0
ARC
  5
B701
330
1F
100
AcDbEntity
  8
0
 62
     0
 48
0.5
100
AcDbCircle
 10
527.0137740514008
 20
1013.659473531663
 30
0.0
 40
6.0
100
AcDbArc
 50
263.0364616477286
 51
264.9999999999993
  0
LINE
  5
B702
330
1F
100
AcDbEntity
  8
0
 62
     0
 48
0.5
100
AcDbLine
 10
533.0137740514008
 20
1019.659473531663
 30
0.0
 11
544.7137740514008
 21
1019.659473531663
 31
0.0
  0
LINE
  5
B703
330
1F
100
AcDbEntity
  8
0
 62
     0
 48
0.5
100
AcDbLine
 10
533.013774051401
 20
1007.659473531663
 30
0.0
 11
533.0137740514008
 21
1019.659473531663
 31
0.0
  0
LINE
  5
B704
330
1F
100
AcDbEntity
  8
0
 62
     0
 48
0.5
100
AcDbLine
 10
545.0137740514009
 20
1019.359473531663
 30
0.0
 11
545.0137740514009
 21
1013.659473531663
 31
0.0
  0
LINE
  5
B705
330
1F
100
AcDbEntity
  8
0
 62
     0
 48
0.5
100
AcDbLine
 10
544.7600995374341
 20
1007.705799017697
 30
0.0
 11
545.0175639355154
 21
1007.963263415778
 31
0.0
  0
LINE
  5
B706
330
1F
100
AcDbEntity
  8
0
 62
     0
 48
0.5
100
AcDbLine
 10
544.7137740514008
 20
1019.659473531663
 30
0.0
 11
545.0137740514009
 21
1019.359473531663
 31
0.0
  0
LINE
  5
B707
330
1F
100
AcDbEntity
  8
0
 62
     0
 48
0.5
100
AcDbLine
 10
523.3638511816002
 20
1008.764973653621
 30
0.0
 11
518.6243079282392
 21
1011.501350226786
 31
0.0
  0
LINE
  5
B708
330
1F
100
AcDbEntity
  8
0
 62
     0
 48
0.5
100
AcDbLine
 10
523.8088550184591
 20
1008.48124920128
 30
0.0
 11
523.3638511816002
 21
1008.764973653621
 31
0.0
  0
LINE
  5
B709
330
1F
100
AcDbEntity
  8
0
 62
     0
 48
0.5
100
AcDbLine
 10
522.8806517881838
 20
1022.873554046693
 30
0.0
 11
523.3941065384462
 21
1022.577110808412
 31
0.0
  0
LINE
  5
B70A
330
1F
100
AcDbEntity
  8
0
 62
     0
 48
0.5
100
AcDbLine
 10
529.8088550184593
 20
1018.873554046692
 30
0.0
 11
523.3941065384462
 21
1022.577110808412
 31
0.0
  0
ARC
  5
B70B
330
1F
100
AcDbEntity
  8
0
 62
     0
 48
0.5
100
AcDbCircle
 10
526.8088550184592
 20
1013.677401623986
 30
0.0
 40
6.0
100
AcDbArc
 50
239.9999999999999
 51
59.99999999999999
  0
CIRCLE
  5
B70C
330
1F
100
AcDbEntity
  8
0
 62
     0
 48
0.5
100
AcDbCircle
 10
527.0137740514008
 20
1013.659473531663
 30
0.0
 40
2.1
  0
LINE
  5
B70D
330
1F
100
AcDbEntity
  8
Object
 62
     0
 48
0.5
100
AcDbLine
 10
550.5856198753368
 20
1013.659473531663
 30
0.0
 11
550.5856198753368
 21
1019.501673531663
 31
0.0
  0
LINE
  5
B70E
330
1F
100
AcDbEntity
  8
Object
 62
     0
 48
0.5
100
AcDbLine
 10
550.5856198753368
 20
1015.210967832748
 30
0.0
 11
548.7131198753367
 21
1013.659473531663
 31
0.0
  0
LINE
  5
B70F
330
1F
100
AcDbEntity
  8
Object
 62
     0
 48
0.5
100
AcDbLine
 10
550.435819875337
 20
1019.651473531663
 30
0.0
 11
550.5856198753368
 21
1019.501673531663
 31
0.0
  0
LINE
  5
B710
330
1F
100
AcDbEntity
  8
Object
 62
     0
 48
0.5
100
AcDbLine
 10
548.7131198753367
 20
1007.817273531663
 30
0.0
 11
548.8629198753367
 21
1007.667473531663
 31
0.0
  0
LINE
  5
B711
330
1F
100
AcDbEntity
  8
Object
 62
     0
 48
0.5
100
AcDbLine
 10
550.5856198753368
 20
1007.817273531663
 30
0.0
 11
550.435819875337
 21
1007.667473531663
 31
0.0
  0
LINE
  5
B712
330
1F
100
AcDbEntity
  8
Object
 62
     0
 48
0.5
100
AcDbLine
 10
548.8629198753367
 20
1007.667473531663
 30
0.0
 11
550.435819875337
 21
1007.667473531663
 31
0.0
  0
LINE
  5
B713
330
1F
100
AcDbEntity
  8
Object
 62
     0
 48
0.5
100
AcDbLine
 10
550.5856198753368
 20
1007.817273531663
 30
0.0
 11
550.5856198753368
 21
1013.659473531663
 31
0.0
  0
LINE
  5
B714
330
1F
100
AcDbEntity
  8
Object
 62
     0
 48
0.5
100
AcDbLine
 10
548.8629198753367
 20
1019.651473531663
 30
0.0
 11
548.7131198753367
 21
1019.501673531663
 31
0.0
  0
LINE
  5
B715
330
1F
100
AcDbEntity
  8
Object
 62
     0
 48
0.5
100
AcDbLine
 10
550.435819875337
 20
1019.651473531663
 30
0.0
 11
548.8629198753367
 21
1019.651473531663
 31
0.0
  0
LINE
  5
B724
330
1F
100
AcDbEntity
  8
0
 62
     0
 48
0.5
100
AcDbLine
 10
516.8806517881839
 20
1012.48124920128
 30
0.0
 11
522.8806517881838
 21
1022.873554046693
 31
0.0
  0
LINE
  5
B728
330
1F
100
AcDbEntity
  8
Object
 62
     0
 48
0.3
100
AcDbLine
 10
511.5922546748351
 20
1030.04770263716
 30
0.0
 11
510.2066140287802
 21
1030.847702637159
 31
0.0
  0
LINE
  5
B729
330
1F
100
AcDbEntity
  8
Object
 62
     0
 48
0.3
100
AcDbLine
 10
508.0141949306638
 20
1027.050321367737
 30
0.0
 11
508.5922546748352
 21
1024.851550214453
 31
0.0
  0
LINE
  5
B72A
330
1F
100
AcDbEntity
  8
Object
 62
     0
 48
0.3
100
AcDbLine
 10
504.2066140287801
 20
1020.455397791746
 30
0.0
 11
505.5922546748351
 21
1019.655397791746
 31
0.0
  0
LINE
  5
B72B
330
1F
100
AcDbEntity
  8
Object
 62
     0
 48
0.3
100
AcDbLine
 10
485.6174924035155
 20
1043.858094668711
 30
0.0
 11
488.042363534112
 21
1042.458094668711
 31
0.0
  0
LINE
  5
B72C
330
1F
100
AcDbEntity
  8
Object
 62
     0
 48
0.3
100
AcDbLine
 10
480.6174924035154
 20
1035.197840630866
 30
0.0
 11
483.042363534112
 21
1033.797840630866
 31
0.0
  0
LINE
  5
B72D
330
1F
100
AcDbEntity
  8
Object
 62
     0
 48
0.3
100
AcDbLine
 10
485.6174924035155
 20
1043.858094668711
 30
0.0
 11
480.6174924035154
 21
1035.197840630866
 31
0.0
  0
LINE
  5
B72E
330
1F
100
AcDbEntity
  8
Object
 62
     0
 48
0.3
100
AcDbLine
 10
488.792363534112
 20
1043.757132774387
 30
0.0
 11
504.813833504124
 21
1034.507132774387
 31
0.0
  0
LINE
  5
B72F
330
1F
100
AcDbEntity
  8
Object
 62
     0
 48
0.3
100
AcDbLine
 10
498.3138335041241
 20
1023.24880252519
 30
0.0
 11
482.292363534112
 21
1032.49880252519
 31
0.0
  0
LINE
  5
B730
330
1F
100
AcDbEntity
  8
Object
 62
     0
 48
0.3
100
AcDbLine
 10
483.042363534112
 20
1033.797840630866
 30
0.0
 11
482.292363534112
 21
1032.49880252519
 31
0.0
  0
LINE
  5
B731
330
1F
100
AcDbEntity
  8
Object
 62
     0
 48
0.3
100
AcDbLine
 10
488.042363534112
 20
1042.458094668711
 30
0.0
 11
488.792363534112
 21
1043.757132774387
 31
0.0
  0
LINE
  5
B732
330
1F
100
AcDbEntity
  8
0
 62
     0
 48
0.3
100
AcDbLine
 10
504.4968462060163
 20
1032.958094668711
 30
0.0
 11
499.4968462060163
 21
1024.297840630866
 31
0.0
  0
LINE
  5
B733
330
1F
100
AcDbEntity
  8
0
 62
     0
 48
0.3
100
AcDbLine
 10
507.0949224173696
 20
1031.458094668711
 30
0.0
 11
502.0949224173696
 21
1022.797840630866
 31
0.0
  0
LINE
  5
B734
330
1F
100
AcDbEntity
  8
Object
 62
     0
 48
0.3
100
AcDbLine
 10
510.3429986287227
 20
1031.08392769363
 30
0.0
 11
504.0429986287228
 21
1020.172007605946
 31
0.0
  0
LINE
  5
B736
330
1F
100
AcDbEntity
  8
Object
 62
     0
 48
0.3
100
AcDbLine
 10
502.0949224173696
 20
1022.797840630866
 30
0.0
 11
499.4968462060163
 21
1024.297840630866
 31
0.0
  0
LINE
  5
B737
330
1F
100
AcDbEntity
  8
Object
 62
     0
 48
0.3
100
AcDbLine
 10
499.4968462060163
 20
1024.297840630866
 30
0.0
 11
498.3138335041241
 21
1023.24880252519
 31
0.0
  0
LINE
  5
B738
330
1F
100
AcDbEntity
  8
Object
 62
     0
 48
0.3
100
AcDbLine
 10
503.769793547966
 20
1020.09880252519
 30
0.0
 11
501.3449224173696
 21
1021.49880252519
 31
0.0
  0
LINE
  5
B739
330
1F
100
AcDbEntity
  8
Object
 62
     0
 48
0.3
100
AcDbLine
 10
501.3449224173696
 20
1021.49880252519
 30
0.0
 11
502.0949224173696
 21
1022.797840630866
 31
0.0
  0
LINE
  5
B73A
330
1F
100
AcDbEntity
  8
Object
 62
     0
 48
0.3
100
AcDbLine
 10
503.769793547966
 20
1020.09880252519
 30
0.0
 11
504.0429986287228
 21
1020.172007605946
 31
0.0
  0
LINE
  5
B73B
330
1F
100
AcDbEntity
  8
Object
 62
     0
 48
0.3
100
AcDbLine
 10
507.0949224173696
 20
1031.458094668711
 30
0.0
 11
504.4968462060163
 21
1032.958094668711
 31
0.0
  0
LINE
  5
B73C
330
1F
100
AcDbEntity
  8
Object
 62
     0
 48
0.3
100
AcDbLine
 10
504.4968462060163
 20
1032.958094668711
 30
0.0
 11
504.813833504124
 21
1034.507132774387
 31
0.0
  0
LINE
  5
B73D
330
1F
100
AcDbEntity
  8
Object
 62
     0
 48
0.3
100
AcDbLine
 10
507.8449224173696
 20
1032.757132774387
 30
0.0
 11
510.269793547966
 21
1031.357132774387
 31
0.0
  0
LINE
  5
B73E
330
1F
100
AcDbEntity
  8
Object
 62
     0
 48
0.3
100
AcDbLine
 10
507.8449224173696
 20
1032.757132774387
 30
0.0
 11
507.0949224173696
 21
1031.458094668711
 31
0.0
  0
LINE
  5
B73F
330
1F
100
AcDbEntity
  8
Object
 62
     0
 48
0.3
100
AcDbLine
 10
510.3429986287227
 20
1031.08392769363
 30
0.0
 11
510.269793547966
 21
1031.357132774387
 31
0.0
  0
LINE
  5
B740
330
1F
100
AcDbEntity
  8
Object
 62
     0
 48
0.3
100
AcDbLine
 10
508.5922546748352
 20
1024.851550214453
 30
0.0
 11
505.5922546748351
 21
1019.655397791746
 31
0.0
  0
LINE
  5
B743
330
1F
100
AcDbEntity
  8
0
 62
     0
 48
0.5
100
AcDbLine
 10
508.5922546748352
 20
1024.851550214453
 30
0.0
 11
511.5922546748351
 21
1030.04770263716
 31
0.0
  0
LINE
  5
B746
330
1F
100
AcDbEntity
  8
0
 62
     0
 48
0.5
100
AcDbLine
 10
545.0137740514009
 20
1013.659473531663
 30
0.0
 11
545.0137740514009
 21
1008.005799017697
 31
0.0
  0
LINE
  5
B74A
330
1F
100
AcDbEntity
  8
0
 62
     0
 48
0.5
100
AcDbLine
 10
444.6390052459003
 20
1064.678279703809
 30
0.0
 11
437.5242361183176
 21
1068.871080470057
 31
0.0
  0
LINE
  5
B74C
330
1F
100
AcDbEntity
  8
0
 62
     0
 48
0.5
100
AcDbLine
 10
467.6144313373205
 20
1046.37765882428
 30
0.0
 11
467.7139050382162
 21
1045.52118043198
 31
0.0
  0
LINE
  5
B74D
330
1F
100
AcDbEntity
  8
0
 62
     0
 48
0.5
100
AcDbLine
 10
469.8293825309593
 20
1050.40366786213
 30
0.0
 11
470.6060653474379
 21
1050.778119536227
 31
0.0
  0
LINE
  5
B74E
330
1F
100
AcDbEntity
  8
Object
 62
     0
 48
0.3
100
AcDbLine
 10
457.0717840098856
 20
1048.212484202295
 30
0.0
 11
440.6173013379812
 21
1057.712484202295
 31
0.0
  0
LINE
  5
B74F
330
1F
100
AcDbEntity
  8
Object
 62
     0
 48
0.3
100
AcDbLine
 10
446.6173013379813
 20
1068.104789047708
 30
0.0
 11
463.0717840098856
 21
1058.604789047708
 31
0.0
  0
LINE
  5
B750
330
1F
100
AcDbEntity
  8
Object
 62
     0
 48
0.3
100
AcDbLine
 10
443.6173013379812
 20
1062.908636625002
 30
0.0
 11
446.6173013379813
 21
1068.104789047708
 31
0.0
  0
CIRCLE
  5
B751
330
1F
100
AcDbEntity
  8
Object
 62
     0
 48
0.3
100
AcDbCircle
 10
446.6483902512269
 20
1061.158636625002
 30
0.0
 40
2.5
  0
LWPOLYLINE
  5
B752
330
1F
100
AcDbEntity
  8
PHANTOM
 62
     0
 48
0.3
100
AcDbPolyline
 90
        6
 70
     1
 43
0.0
 10
445.8983902512269
 20
1062.457674730678
 10
445.1483902512269
 20
1061.158636625002
 10
445.8983902512267
 20
1059.859598519325
 10
447.3983902512269
 20
1059.859598519325
 10
448.1483902512269
 20
1061.158636625002
 10
447.3983902512267
 20
1062.457674730678
  0
LINE
  5
B753
330
1F
100
AcDbEntity
  8
Object
 62
     0
 48
0.3
100
AcDbLine
 10
440.6173013379812
 20
1057.712484202295
 30
0.0
 11
443.6173013379812
 21
1062.908636625002
 31
0.0
  0
CIRCLE
  5
B754
330
1F
100
AcDbEntity
  8
Object
 62
     0
 48
0.3
100
AcDbCircle
 10
452.710568077718
 20
1057.658636625002
 30
0.0
 40
2.5
  0
LWPOLYLINE
  5
B755
330
1F
100
AcDbEntity
  8
PHANTOM
 62
     0
 48
0.3
100
AcDbPolyline
 90
        6
 70
     1
 43
0.0
 10
451.6499079059379
 20
1058.719296796781
 10
451.2616793382842
 20
1057.270408057347
 10
452.3223395100641
 20
1056.209747885568
 10
453.7712282494977
 20
1056.597976453222
 10
454.1594568171515
 20
1058.046865192656
 10
453.0987966453718
 20
1059.107525364435
  0
LINE
  5
B756
330
1F
100
AcDbEntity
  8
Object
 62
     0
 48
0.3
100
AcDbLine
 10
469.799987240161
 20
1054.258378886194
 30
0.0
 11
464.1999872401611
 21
1044.558894363809
 31
0.0
  0
LINE
  5
B757
330
1F
100
AcDbEntity
  8
0
 62
     0
 48
0.3
100
AcDbLine
 10
462.5717840098856
 20
1057.738763643924
 30
0.0
 11
463.0717840098856
 21
1058.604789047708
 31
0.0
  0
LINE
  5
B759
330
1F
100
AcDbEntity
  8
0
 62
     0
 48
0.3
100
AcDbLine
 10
466.9019110288078
 20
1055.238763643924
 30
0.0
 11
462.5717840098856
 21
1057.738763643924
 31
0.0
  0
LINE
  5
B75A
330
1F
100
AcDbEntity
  8
0
 62
     0
 48
0.3
100
AcDbLine
 10
461.9019110288077
 20
1046.578509606079
 30
0.0
 11
457.5717840098856
 21
1049.078509606079
 31
0.0
  0
LINE
  5
B75B
330
1F
100
AcDbEntity
  8
0
 62
     0
 48
0.3
100
AcDbLine
 10
457.5717840098856
 20
1049.078509606079
 30
0.0
 11
457.0717840098856
 21
1048.212484202295
 31
0.0
  0
CIRCLE
  5
B75C
330
1F
100
AcDbEntity
  8
Object
 62
     0
 48
0.3
100
AcDbCircle
 10
458.772745904209
 20
1054.158636625002
 30
0.0
 40
2.5
  0
LWPOLYLINE
  5
B75D
330
1F
100
AcDbEntity
  8
PHANTOM
 62
     0
 48
0.3
100
AcDbPolyline
 90
        6
 70
     1
 43
0.0
 10
457.4737077985322
 20
1054.908636625002
 10
457.4737077985322
 20
1053.408636625001
 10
458.772745904209
 20
1052.658636625001
 10
460.0717840098856
 20
1053.408636625001
 10
460.0717840098856
 20
1054.908636625002
 10
458.7727459042088
 20
1055.658636625002
  0
LINE
  5
B75E
330
1F
100
AcDbEntity
  8
0
 62
     0
 48
0.5
100
AcDbLine
 10
468.172835568109
 20
1051.440069518579
 30
0.0
 11
468.8740145398691
 21
1051.778119536227
 31
0.0
  0
LINE
  5
B75F
330
1F
100
AcDbEntity
  8
0
 62
     0
 48
0.5
100
AcDbLine
 10
465.8925116433416
 20
1047.395632106076
 30
0.0
 11
465.8166672380426
 21
1047.35906625972
 31
0.0
  0
LINE
  5
B760
330
1F
100
AcDbEntity
  8
0
 62
     0
 48
0.5
100
AcDbLine
 10
465.8925116433416
 20
1047.395632106076
 30
0.0
 11
466.9999872401602
 21
1049.408636625
 31
0.0
  0
LINE
  5
B761
330
1F
100
AcDbEntity
  8
0
 62
     0
 48
0.5
100
AcDbLine
 10
468.9734882407647
 20
1050.921641143926
 30
0.0
 11
468.8740145398691
 21
1051.778119536227
 31
0.0
  0
LINE
  5
B762
330
1F
100
AcDbEntity
  8
0
 62
     0
 48
0.5
100
AcDbLine
 10
466.7585370471262
 20
1046.895632106076
 30
0.0
 11
465.9818542306473
 21
1046.52118043198
 31
0.0
  0
LINE
  5
B763
330
1F
100
AcDbEntity
  8
0
 62
     0
 48
0.5
100
AcDbLine
 10
466.8478796344317
 20
1046.02118043198
 30
0.0
 11
469.7400399436536
 21
1051.278119536227
 31
0.0
  0
LINE
  5
B764
330
1F
100
AcDbEntity
  8
0
 62
     0
 48
0.5
100
AcDbLine
 10
467.6245624509105
 20
1046.395632106077
 30
0.0
 11
466.8478796344317
 21
1046.02118043198
 31
0.0
  0
LINE
  5
B765
330
1F
100
AcDbEntity
  8
0
 62
     0
 48
0.5
100
AcDbLine
 10
466.7484059335361
 20
1046.87765882428
 30
0.0
 11
466.8478796344317
 21
1046.02118043198
 31
0.0
  0
LINE
  5
B766
330
1F
100
AcDbEntity
  8
0
 62
     0
 48
0.5
100
AcDbLine
 10
469.8395136445492
 20
1050.421641143926
 30
0.0
 11
469.7400399436536
 21
1051.278119536227
 31
0.0
  0
LINE
  5
B767
330
1F
100
AcDbEntity
  8
0
 62
     0
 48
0.5
100
AcDbLine
 10
467.6245624509105
 20
1046.395632106077
 30
0.0
 11
469.8395136445492
 21
1050.421641143926
 31
0.0
  0
LINE
  5
B768
330
1F
100
AcDbEntity
  8
0
 62
     0
 48
0.5
100
AcDbLine
 10
468.9633571271748
 20
1050.90366786213
 30
0.0
 11
469.7400399436536
 21
1051.278119536227
 31
0.0
  0
LINE
  5
B769
330
1F
100
AcDbEntity
  8
0
 62
     0
 48
0.5
100
AcDbLine
 10
466.7585370471262
 20
1046.895632106076
 30
0.0
 11
468.9734882407647
 21
1050.921641143926
 31
0.0
  0
LINE
  5
B76A
330
1F
100
AcDbEntity
  8
0
 62
     0
 48
0.5
100
AcDbLine
 10
465.9818542306473
 20
1046.52118043198
 30
0.0
 11
468.8740145398691
 21
1051.778119536227
 31
0.0
  0
LINE
  5
B76B
330
1F
100
AcDbEntity
  8
0
 62
     0
 48
0.5
100
AcDbLine
 10
465.8823805297516
 20
1047.37765882428
 30
0.0
 11
465.9818542306473
 21
1046.52118043198
 31
0.0
  0
LINE
  5
B770
330
1F
100
AcDbEntity
  8
Object
 62
     0
 48
0.3
100
AcDbLine
 10
465.7499872401611
 20
1047.24357311554
 30
0.0
 11
463.1519110288078
 21
1048.74357311554
 31
0.0
  0
LINE
  5
B771
330
1F
100
AcDbEntity
  8
Object
 62
     0
 48
0.3
100
AcDbLine
 10
468.2499872401611
 20
1051.573700134463
 30
0.0
 11
465.6519110288078
 21
1053.073700134463
 31
0.0
  0
LINE
  5
B772
330
1F
100
AcDbEntity
  8
Object
 62
     0
 48
0.3
100
AcDbLine
 10
464.1999872401611
 20
1044.558894363809
 30
0.0
 11
461.6019110288078
 21
1046.058894363809
 31
0.0
  0
LINE
  5
B773
330
1F
100
AcDbEntity
  8
Object
 62
     0
 48
0.3
100
AcDbLine
 10
467.2019110288077
 20
1055.758378886194
 30
0.0
 11
469.799987240161
 21
1054.258378886194
 31
0.0
  0
LINE
  5
B774
330
1F
100
AcDbEntity
  8
0
 62
     0
 48
0.5
100
AcDbLine
 10
474.542634567596
 20
1042.37765882428
 30
0.0
 11
474.6421082684917
 21
1041.521180431979
 31
0.0
  0
LINE
  5
B775
330
1F
100
AcDbEntity
  8
0
 62
     0
 48
0.5
100
AcDbLine
 10
476.7575857612347
 20
1046.40366786213
 30
0.0
 11
477.5342685777135
 21
1046.778119536227
 31
0.0
  0
LINE
  5
B776
330
1F
100
AcDbEntity
  8
0
 62
     0
 48
0.5
100
AcDbLine
 10
473.6867402774016
 20
1042.895632106076
 30
0.0
 11
472.9100574609228
 21
1042.52118043198
 31
0.0
  0
LINE
  5
B777
330
1F
100
AcDbEntity
  8
0
 62
     0
 48
0.5
100
AcDbLine
 10
475.9016914710403
 20
1046.921641143926
 30
0.0
 11
475.8022177701446
 21
1047.778119536227
 31
0.0
  0
LINE
  5
B778
330
1F
100
AcDbEntity
  8
0
 62
     0
 48
0.5
100
AcDbLine
 10
473.7760828647073
 20
1042.02118043198
 30
0.0
 11
476.6682431739289
 21
1047.278119536227
 31
0.0
  0
LINE
  5
B779
330
1F
100
AcDbEntity
  8
0
 62
     0
 48
0.5
100
AcDbLine
 10
474.552765681186
 20
1042.395632106076
 30
0.0
 11
473.7760828647073
 21
1042.02118043198
 31
0.0
  0
LINE
  5
B77A
330
1F
100
AcDbEntity
  8
0
 62
     0
 48
0.5
100
AcDbLine
 10
473.6766091638116
 20
1042.87765882428
 30
0.0
 11
473.7760828647073
 21
1042.02118043198
 31
0.0
  0
LINE
  5
B77B
330
1F
100
AcDbEntity
  8
0
 62
     0
 48
0.5
100
AcDbLine
 10
476.7677168748247
 20
1046.421641143926
 30
0.0
 11
476.6682431739289
 21
1047.278119536227
 31
0.0
  0
LINE
  5
B77C
330
1F
100
AcDbEntity
  8
0
 62
     0
 48
0.5
100
AcDbLine
 10
475.8915603574504
 20
1046.90366786213
 30
0.0
 11
476.6682431739289
 21
1047.278119536227
 31
0.0
  0
LINE
  5
B77D
330
1F
100
AcDbEntity
  8
0
 62
     0
 48
0.5
100
AcDbLine
 10
474.552765681186
 20
1042.395632106076
 30
0.0
 11
476.7677168748247
 21
1046.421641143926
 31
0.0
  0
LINE
  5
B77E
330
1F
100
AcDbEntity
  8
0
 62
     0
 48
0.5
100
AcDbLine
 10
473.6867402774016
 20
1042.895632106076
 30
0.0
 11
475.9016914710403
 21
1046.921641143926
 31
0.0
  0
LINE
  5
B77F
330
1F
100
AcDbEntity
  8
0
 62
     0
 48
0.5
100
AcDbLine
 10
472.9100574609228
 20
1042.52118043198
 30
0.0
 11
475.8022177701446
 21
1047.778119536227
 31
0.0
  0
LINE
  5
B780
330
1F
100
AcDbEntity
  8
0
 62
     0
 48
0.5
100
AcDbLine
 10
472.8105837600272
 20
1043.37765882428
 30
0.0
 11
472.9100574609228
 21
1042.52118043198
 31
0.0
  0
LINE
  5
B781
330
1F
100
AcDbEntity
  8
0
 62
     0
 48
0.5
100
AcDbLine
 10
475.0255349536659
 20
1047.40366786213
 30
0.0
 11
475.8022177701446
 21
1047.778119536227
 31
0.0
  0
LINE
  5
B782
330
1F
100
AcDbEntity
  8
0
 62
     0
 48
0.5
100
AcDbLine
 10
472.0440320571384
 20
1043.021180431979
 30
0.0
 11
474.9361923663601
 21
1048.278119536227
 31
0.0
  0
LINE
  5
B783
330
1F
100
AcDbEntity
  8
0
 62
     0
 48
0.5
100
AcDbLine
 10
472.8207148736172
 20
1043.395632106076
 30
0.0
 11
472.0440320571384
 21
1043.021180431979
 31
0.0
  0
LINE
  5
B784
330
1F
100
AcDbEntity
  8
0
 62
     0
 48
0.5
100
AcDbLine
 10
471.9445583562427
 20
1043.87765882428
 30
0.0
 11
472.0440320571384
 21
1043.021180431979
 31
0.0
  0
LINE
  5
B785
330
1F
100
AcDbEntity
  8
0
 62
     0
 48
0.5
100
AcDbLine
 10
475.0356660672558
 20
1047.421641143926
 30
0.0
 11
474.9361923663601
 21
1048.278119536227
 31
0.0
  0
LINE
  5
B786
330
1F
100
AcDbEntity
  8
0
 62
     0
 48
0.5
100
AcDbLine
 10
474.1595095498815
 20
1047.90366786213
 30
0.0
 11
474.9361923663601
 21
1048.278119536227
 31
0.0
  0
LINE
  5
B787
330
1F
100
AcDbEntity
  8
0
 62
     0
 48
0.5
100
AcDbLine
 10
472.8207148736172
 20
1043.395632106076
 30
0.0
 11
475.0356660672558
 21
1047.421641143926
 31
0.0
  0
LINE
  5
B788
330
1F
100
AcDbEntity
  8
0
 62
     0
 48
0.5
100
AcDbLine
 10
471.1780066533539
 20
1043.521180431979
 30
0.0
 11
474.0701669625757
 21
1048.778119536227
 31
0.0
  0
LINE
  5
B789
330
1F
100
AcDbEntity
  8
0
 62
     0
 48
0.5
100
AcDbLine
 10
471.9546894698327
 20
1043.895632106076
 30
0.0
 11
471.1780066533539
 21
1043.521180431979
 31
0.0
  0
LINE
  5
B78A
330
1F
100
AcDbEntity
  8
0
 62
     0
 48
0.5
100
AcDbLine
 10
471.0785329524582
 20
1044.37765882428
 30
0.0
 11
471.1780066533539
 21
1043.521180431979
 31
0.0
  0
LINE
  5
B78B
330
1F
100
AcDbEntity
  8
0
 62
     0
 48
0.5
100
AcDbLine
 10
474.1696406634714
 20
1047.921641143926
 30
0.0
 11
474.0701669625757
 21
1048.778119536227
 31
0.0
  0
LINE
  5
B78C
330
1F
100
AcDbEntity
  8
0
 62
     0
 48
0.5
100
AcDbLine
 10
473.293484146097
 20
1048.40366786213
 30
0.0
 11
474.0701669625757
 21
1048.778119536227
 31
0.0
  0
LINE
  5
B78D
330
1F
100
AcDbEntity
  8
0
 62
     0
 48
0.5
100
AcDbLine
 10
471.9546894698327
 20
1043.895632106076
 30
0.0
 11
474.1696406634714
 21
1047.921641143926
 31
0.0
  0
LINE
  5
B78E
330
1F
100
AcDbEntity
  8
0
 62
     0
 48
0.5
100
AcDbLine
 10
470.3119812495696
 20
1044.02118043198
 30
0.0
 11
473.2041415587913
 21
1049.278119536227
 31
0.0
  0
LINE
  5
B78F
330
1F
100
AcDbEntity
  8
0
 62
     0
 48
0.5
100
AcDbLine
 10
471.0886640660484
 20
1044.395632106076
 30
0.0
 11
470.3119812495696
 21
1044.02118043198
 31
0.0
  0
LINE
  5
B790
330
1F
100
AcDbEntity
  8
0
 62
     0
 48
0.5
100
AcDbLine
 10
470.2125075486739
 20
1044.87765882428
 30
0.0
 11
470.3119812495696
 21
1044.02118043198
 31
0.0
  0
LINE
  5
B791
330
1F
100
AcDbEntity
  8
0
 62
     0
 48
0.5
100
AcDbLine
 10
473.303615259687
 20
1048.421641143926
 30
0.0
 11
473.2041415587913
 21
1049.278119536227
 31
0.0
  0
LINE
  5
B792
330
1F
100
AcDbEntity
  8
0
 62
     0
 48
0.5
100
AcDbLine
 10
472.4274587423126
 20
1048.90366786213
 30
0.0
 11
473.2041415587913
 21
1049.278119536227
 31
0.0
  0
LINE
  5
B793
330
1F
100
AcDbEntity
  8
0
 62
     0
 48
0.5
100
AcDbLine
 10
471.0886640660484
 20
1044.395632106076
 30
0.0
 11
473.303615259687
 21
1048.421641143926
 31
0.0
  0
LINE
  5
B794
330
1F
100
AcDbEntity
  8
0
 62
     0
 48
0.5
100
AcDbLine
 10
470.2226386622639
 20
1044.895632106076
 30
0.0
 11
472.4375898559024
 21
1048.921641143926
 31
0.0
  0
LINE
  5
B795
330
1F
100
AcDbEntity
  8
0
 62
     0
 48
0.5
100
AcDbLine
 10
469.445955845785
 20
1044.52118043198
 30
0.0
 11
472.3381161550069
 21
1049.778119536227
 31
0.0
  0
LINE
  5
B796
330
1F
100
AcDbEntity
  8
0
 62
     0
 48
0.5
100
AcDbLine
 10
469.3464821448893
 20
1045.37765882428
 30
0.0
 11
469.445955845785
 21
1044.52118043198
 31
0.0
  0
LINE
  5
B797
330
1F
100
AcDbEntity
  8
0
 62
     0
 48
0.5
100
AcDbLine
 10
471.5614333385282
 20
1049.40366786213
 30
0.0
 11
472.3381161550069
 21
1049.778119536227
 31
0.0
  0
LINE
  5
B798
330
1F
100
AcDbEntity
  8
0
 62
     0
 48
0.5
100
AcDbLine
 10
468.5799304420006
 20
1045.02118043198
 30
0.0
 11
471.4720907512225
 21
1050.278119536227
 31
0.0
  0
LINE
  5
B799
330
1F
100
AcDbEntity
  8
0
 62
     0
 48
0.5
100
AcDbLine
 10
469.3566132584794
 20
1045.395632106076
 30
0.0
 11
468.5799304420006
 21
1045.02118043198
 31
0.0
  0
LINE
  5
B79A
330
1F
100
AcDbEntity
  8
0
 62
     0
 48
0.5
100
AcDbLine
 10
468.4804567411049
 20
1045.87765882428
 30
0.0
 11
468.5799304420006
 21
1045.02118043198
 31
0.0
  0
LINE
  5
B79B
330
1F
100
AcDbEntity
  8
0
 62
     0
 48
0.5
100
AcDbLine
 10
471.5715644521181
 20
1049.421641143926
 30
0.0
 11
471.4720907512225
 21
1050.278119536227
 31
0.0
  0
LINE
  5
B79C
330
1F
100
AcDbEntity
  8
0
 62
     0
 48
0.5
100
AcDbLine
 10
470.6954079347436
 20
1049.90366786213
 30
0.0
 11
471.4720907512225
 21
1050.278119536227
 31
0.0
  0
LINE
  5
B79D
330
1F
100
AcDbEntity
  8
0
 62
     0
 48
0.5
100
AcDbLine
 10
469.3566132584794
 20
1045.395632106076
 30
0.0
 11
471.5715644521181
 21
1049.421641143926
 31
0.0
  0
LINE
  5
B79E
330
1F
100
AcDbEntity
  8
0
 62
     0
 48
0.5
100
AcDbLine
 10
467.7139050382162
 20
1045.52118043198
 30
0.0
 11
470.6060653474379
 21
1050.778119536227
 31
0.0
  0
LINE
  5
B79F
330
1F
100
AcDbEntity
  8
0
 62
     0
 48
0.5
100
AcDbLine
 10
468.490587854695
 20
1045.895632106076
 30
0.0
 11
467.7139050382162
 21
1045.52118043198
 31
0.0
  0
LINE
  5
B7A0
330
1F
100
AcDbEntity
  8
0
 62
     0
 48
0.5
100
AcDbLine
 10
470.7055390483336
 20
1049.921641143926
 30
0.0
 11
470.6060653474379
 21
1050.778119536227
 31
0.0
  0
LINE
  5
B7A1
330
1F
100
AcDbEntity
  8
0
 62
     0
 48
0.5
100
AcDbLine
 10
468.490587854695
 20
1045.895632106076
 30
0.0
 11
470.7055390483336
 21
1049.921641143926
 31
0.0
  0
LINE
  5
B7A2
330
1F
100
AcDbEntity
  8
0
 62
     0
 48
0.5
100
AcDbLine
 10
470.2226386622639
 20
1044.895632106076
 30
0.0
 11
469.445955845785
 21
1044.52118043198
 31
0.0
  0
LINE
  5
B7A3
330
1F
100
AcDbEntity
  8
0
 62
     0
 48
0.5
100
AcDbLine
 10
472.4375898559024
 20
1048.921641143926
 30
0.0
 11
472.3381161550069
 21
1049.778119536227
 31
0.0
  0
LINE
  5
B7A4
330
1F
100
AcDbEntity
  8
0
 62
     0
 48
0.5
100
AcDbLine
 10
478.8828927001083
 20
1039.895632106077
 30
0.0
 11
481.0978438937469
 21
1043.921641143926
 31
0.0
  0
LINE
  5
B7A5
330
1F
100
AcDbEntity
  8
0
 62
     0
 48
0.5
100
AcDbLine
 10
480.2216873763726
 20
1044.40366786213
 30
0.0
 11
480.9983701928512
 21
1044.778119536227
 31
0.0
  0
LINE
  5
B7A6
330
1F
100
AcDbEntity
  8
0
 62
     0
 48
0.5
100
AcDbLine
 10
481.0978438937469
 20
1043.921641143926
 30
0.0
 11
480.9983701928512
 21
1044.778119536227
 31
0.0
  0
LINE
  5
B7A7
330
1F
100
AcDbEntity
  8
0
 62
     0
 48
0.5
100
AcDbLine
 10
478.0067361827337
 20
1040.37765882428
 30
0.0
 11
478.1062098836295
 21
1039.521180431979
 31
0.0
  0
LINE
  5
B7A8
330
1F
100
AcDbEntity
  8
0
 62
     0
 48
0.5
100
AcDbLine
 10
478.8828927001083
 20
1039.895632106077
 30
0.0
 11
478.1062098836295
 21
1039.521180431979
 31
0.0
  0
LINE
  5
B7A9
330
1F
100
AcDbEntity
  8
0
 62
     0
 48
0.5
100
AcDbLine
 10
478.1062098836295
 20
1039.521180431979
 30
0.0
 11
480.9983701928512
 21
1044.778119536227
 31
0.0
  0
LINE
  5
B7AA
330
1F
100
AcDbEntity
  8
0
 62
     0
 48
0.5
100
AcDbLine
 10
477.240184479845
 20
1040.021180431979
 30
0.0
 11
480.1323447890669
 21
1045.278119536227
 31
0.0
  0
LINE
  5
B7AB
330
1F
100
AcDbEntity
  8
0
 62
     0
 48
0.5
100
AcDbLine
 10
478.0168672963237
 20
1040.395632106076
 30
0.0
 11
477.240184479845
 21
1040.021180431979
 31
0.0
  0
LINE
  5
B7AC
330
1F
100
AcDbEntity
  8
0
 62
     0
 48
0.5
100
AcDbLine
 10
477.1407107789493
 20
1040.87765882428
 30
0.0
 11
477.240184479845
 21
1040.021180431979
 31
0.0
  0
LINE
  5
B7AD
330
1F
100
AcDbEntity
  8
0
 62
     0
 48
0.5
100
AcDbLine
 10
480.2318184899625
 20
1044.421641143926
 30
0.0
 11
480.1323447890669
 21
1045.278119536227
 31
0.0
  0
LINE
  5
B7AE
330
1F
100
AcDbEntity
  8
0
 62
     0
 48
0.5
100
AcDbLine
 10
479.355661972588
 20
1044.90366786213
 30
0.0
 11
480.1323447890669
 21
1045.278119536227
 31
0.0
  0
LINE
  5
B7AF
330
1F
100
AcDbEntity
  8
0
 62
     0
 48
0.5
100
AcDbLine
 10
478.0168672963237
 20
1040.395632106076
 30
0.0
 11
480.2318184899625
 21
1044.421641143926
 31
0.0
  0
LINE
  5
B7B0
330
1F
100
AcDbEntity
  8
0
 62
     0
 48
0.5
100
AcDbLine
 10
477.1508418925394
 20
1040.895632106076
 30
0.0
 11
479.3657930861781
 21
1044.921641143926
 31
0.0
  0
LINE
  5
B7B1
330
1F
100
AcDbEntity
  8
0
 62
     0
 48
0.5
100
AcDbLine
 10
476.3741590760607
 20
1040.52118043198
 30
0.0
 11
479.2663193852823
 21
1045.778119536227
 31
0.0
  0
LINE
  5
B7B2
330
1F
100
AcDbEntity
  8
0
 62
     0
 48
0.5
100
AcDbLine
 10
476.2746853751649
 20
1041.37765882428
 30
0.0
 11
476.3741590760607
 21
1040.52118043198
 31
0.0
  0
LINE
  5
B7B3
330
1F
100
AcDbEntity
  8
0
 62
     0
 48
0.5
100
AcDbLine
 10
478.4896365688037
 20
1045.40366786213
 30
0.0
 11
479.2663193852823
 21
1045.778119536227
 31
0.0
  0
LINE
  5
B7B4
330
1F
100
AcDbEntity
  8
0
 62
     0
 48
0.5
100
AcDbLine
 10
475.5081336722761
 20
1041.021180431979
 30
0.0
 11
478.4002939814979
 21
1046.278119536227
 31
0.0
  0
LINE
  5
B7B5
330
1F
100
AcDbEntity
  8
0
 62
     0
 48
0.5
100
AcDbLine
 10
476.2848164887549
 20
1041.395632106076
 30
0.0
 11
475.5081336722761
 21
1041.021180431979
 31
0.0
  0
LINE
  5
B7B6
330
1F
100
AcDbEntity
  8
0
 62
     0
 48
0.5
100
AcDbLine
 10
475.4086599713803
 20
1041.87765882428
 30
0.0
 11
475.5081336722761
 21
1041.021180431979
 31
0.0
  0
LINE
  5
B7B7
330
1F
100
AcDbEntity
  8
0
 62
     0
 48
0.5
100
AcDbLine
 10
478.4997676823935
 20
1045.421641143926
 30
0.0
 11
478.4002939814979
 21
1046.278119536227
 31
0.0
  0
LINE
  5
B7B8
330
1F
100
AcDbEntity
  8
0
 62
     0
 48
0.5
100
AcDbLine
 10
477.6236111650193
 20
1045.90366786213
 30
0.0
 11
478.4002939814979
 21
1046.278119536227
 31
0.0
  0
LINE
  5
B7B9
330
1F
100
AcDbEntity
  8
0
 62
     0
 48
0.5
100
AcDbLine
 10
476.2848164887549
 20
1041.395632106076
 30
0.0
 11
478.4997676823935
 21
1045.421641143926
 31
0.0
  0
LINE
  5
B7BA
330
1F
100
AcDbEntity
  8
0
 62
     0
 48
0.5
100
AcDbLine
 10
474.6421082684917
 20
1041.521180431979
 30
0.0
 11
477.5342685777135
 21
1046.778119536227
 31
0.0
  0
LINE
  5
B7BB
330
1F
100
AcDbEntity
  8
0
 62
     0
 48
0.5
100
AcDbLine
 10
475.4187910849704
 20
1041.895632106076
 30
0.0
 11
474.6421082684917
 21
1041.521180431979
 31
0.0
  0
LINE
  5
B7BC
330
1F
100
AcDbEntity
  8
0
 62
     0
 48
0.5
100
AcDbLine
 10
477.6337422786092
 20
1045.921641143926
 30
0.0
 11
477.5342685777135
 21
1046.778119536227
 31
0.0
  0
LINE
  5
B7BD
330
1F
100
AcDbEntity
  8
0
 62
     0
 48
0.5
100
AcDbLine
 10
475.4187910849704
 20
1041.895632106076
 30
0.0
 11
477.6337422786092
 21
1045.921641143926
 31
0.0
  0
LINE
  5
B7BE
330
1F
100
AcDbEntity
  8
0
 62
     0
 48
0.5
100
AcDbLine
 10
477.1508418925394
 20
1040.895632106076
 30
0.0
 11
476.3741590760607
 21
1040.52118043198
 31
0.0
  0
LINE
  5
B7BF
330
1F
100
AcDbEntity
  8
0
 62
     0
 48
0.5
100
AcDbLine
 10
479.3657930861781
 20
1044.921641143926
 30
0.0
 11
479.2663193852823
 21
1045.778119536227
 31
0.0
  0
LINE
  5
B7C2
330
1F
100
AcDbEntity
  8
0
 62
     0
 48
0.5
100
AcDbLine
 10
442.8277168657054
 20
1061.541036202152
 30
0.0
 11
435.7129477381227
 21
1065.7338369684
 31
0.0
  0
ARC
  5
B7C4
330
1F
100
AcDbEntity
  8
0
 62
     0
 48
0.5
100
AcDbCircle
 10
400.2579995647293
 20
1246.391919897725
 30
0.0
 40
6.0
100
AcDbArc
 50
59.99999999999994
 51
239.9999999999999
  0
LINE
  5
B7C5
330
1F
100
AcDbEntity
  8
0
 62
     0
 48
0.5
100
AcDbLine
 10
398.5790499923456
 20
1240.433058655021
 30
0.0
 11
394.0530805317875
 21
1240.433058655021
 31
0.0
  0
LINE
  5
B7C6
330
1F
100
AcDbEntity
  8
0
 62
     0
 48
0.5
100
AcDbLine
 10
407.9398017825161
 20
1238.573832199432
 30
0.0
 11
410.8319620917381
 21
1243.830771303679
 31
0.0
  0
LINE
  5
B7C7
330
1F
100
AcDbEntity
  8
0
 62
     0
 48
0.5
100
AcDbLine
 10
408.7164845989949
 20
1238.948283873529
 30
0.0
 11
410.9314357926337
 21
1242.974292911379
 31
0.0
  0
LINE
  5
B7C8
330
1F
100
AcDbEntity
  8
0
 62
     0
 48
0.5
100
AcDbLine
 10
410.448535406564
 20
1237.948283873529
 30
0.0
 11
409.671852590085
 21
1237.573832199432
 31
0.0
  0
LINE
  5
B7C9
330
1F
100
AcDbEntity
  8
0
 62
     0
 48
0.5
100
AcDbLine
 10
410.0552792752592
 20
1243.456319629582
 30
0.0
 11
410.8319620917381
 21
1243.830771303679
 31
0.0
  0
LINE
  5
B7CA
330
1F
100
AcDbEntity
  8
0
 62
     0
 48
0.5
100
AcDbLine
 10
408.8058271863006
 20
1238.073832199432
 30
0.0
 11
411.6979874955224
 21
1243.330771303679
 31
0.0
  0
LINE
  5
B7CB
330
1F
100
AcDbEntity
  8
0
 62
     0
 48
0.5
100
AcDbLine
 10
409.671852590085
 20
1237.573832199432
 30
0.0
 11
412.5640128993069
 21
1242.830771303679
 31
0.0
  0
LINE
  5
B7CC
330
1F
100
AcDbEntity
  8
0
 62
     0
 48
0.5
100
AcDbLine
 10
409.5825100027794
 20
1238.448283873529
 30
0.0
 11
411.797461196418
 21
1242.474292911379
 31
0.0
  0
LINE
  5
B7CD
330
1F
100
AcDbEntity
  8
0
 62
     0
 48
0.5
100
AcDbLine
 10
411.3044296967583
 20
1237.430310591733
 30
0.0
 11
411.403903397654
 21
1236.573832199432
 31
0.0
  0
LINE
  5
B7CE
330
1F
100
AcDbEntity
  8
0
 62
     0
 48
0.5
100
AcDbLine
 10
411.3145608103483
 20
1237.448283873529
 30
0.0
 11
410.5378779938694
 21
1237.073832199432
 31
0.0
  0
LINE
  5
B7CF
330
1F
100
AcDbEntity
  8
0
 62
     0
 48
0.5
100
AcDbLine
 10
410.4384042929738
 20
1237.930310591733
 30
0.0
 11
410.5378779938694
 21
1237.073832199432
 31
0.0
  0
LINE
  5
B7D0
330
1F
100
AcDbEntity
  8
0
 62
     0
 48
0.5
100
AcDbLine
 10
410.9314357926337
 20
1242.974292911379
 30
0.0
 11
410.8319620917381
 21
1243.830771303679
 31
0.0
  0
LINE
  5
B7D1
330
1F
100
AcDbEntity
  8
0
 62
     0
 48
0.5
100
AcDbLine
 10
413.9126370217017
 20
1235.948283873529
 30
0.0
 11
413.1359542052228
 21
1235.573832199432
 31
0.0
  0
LINE
  5
B7D2
330
1F
100
AcDbEntity
  8
0
 62
     0
 48
0.5
100
AcDbLine
 10
413.0364805043272
 20
1236.430310591733
 30
0.0
 11
413.1359542052228
 21
1235.573832199432
 31
0.0
  0
LINE
  5
B7D3
330
1F
100
AcDbEntity
  8
0
 62
     0
 48
0.5
100
AcDbLine
 10
412.1704551005426
 20
1236.930310591733
 30
0.0
 11
412.2699288014383
 21
1236.073832199432
 31
0.0
  0
LINE
  5
B7D4
330
1F
100
AcDbEntity
  8
0
 62
     0
 48
0.5
100
AcDbLine
 10
413.5295120039869
 20
1241.474292911379
 30
0.0
 11
413.4300383030912
 21
1242.330771303679
 31
0.0
  0
LINE
  5
B7D5
330
1F
100
AcDbEntity
  8
0
 62
     0
 48
0.5
100
AcDbLine
 10
412.6533554866126
 20
1241.956319629582
 30
0.0
 11
413.4300383030912
 21
1242.330771303679
 31
0.0
  0
LINE
  5
B7D6
330
1F
100
AcDbEntity
  8
0
 62
     0
 48
0.5
100
AcDbLine
 10
412.6634866002026
 20
1241.974292911379
 30
0.0
 11
412.5640128993069
 21
1242.830771303679
 31
0.0
  0
LINE
  5
B7D7
330
1F
100
AcDbEntity
  8
0
 62
     0
 48
0.5
100
AcDbLine
 10
413.0466116179171
 20
1236.448283873529
 30
0.0
 11
412.2699288014383
 21
1236.073832199432
 31
0.0
  0
LINE
  5
B7D8
330
1F
100
AcDbEntity
  8
0
 62
     0
 48
0.5
100
AcDbLine
 10
411.797461196418
 20
1242.474292911379
 30
0.0
 11
411.6979874955224
 21
1243.330771303679
 31
0.0
  0
LINE
  5
B7D9
330
1F
100
AcDbEntity
  8
0
 62
     0
 48
0.5
100
AcDbLine
 10
411.7873300828281
 20
1242.456319629583
 30
0.0
 11
412.5640128993069
 21
1242.830771303679
 31
0.0
  0
LINE
  5
B7DA
330
1F
100
AcDbEntity
  8
0
 62
     0
 48
0.5
100
AcDbLine
 10
412.1805862141328
 20
1236.948283873529
 30
0.0
 11
411.403903397654
 21
1236.573832199432
 31
0.0
  0
LINE
  5
B7DB
330
1F
100
AcDbEntity
  8
0
 62
     0
 48
0.5
100
AcDbLine
 10
410.5378779938694
 20
1237.073832199432
 30
0.0
 11
413.4300383030912
 21
1242.330771303679
 31
0.0
  0
LINE
  5
B7DC
330
1F
100
AcDbEntity
  8
0
 62
     0
 48
0.5
100
AcDbLine
 10
411.3145608103483
 20
1237.448283873529
 30
0.0
 11
413.5295120039869
 21
1241.474292911379
 31
0.0
  0
LINE
  5
B7DD
330
1F
100
AcDbEntity
  8
0
 62
     0
 48
0.5
100
AcDbLine
 10
410.448535406564
 20
1237.948283873529
 30
0.0
 11
412.6634866002026
 21
1241.974292911379
 31
0.0
  0
LINE
  5
B7DE
330
1F
100
AcDbEntity
  8
0
 62
     0
 48
0.5
100
AcDbLine
 10
410.9213046790438
 20
1242.956319629582
 30
0.0
 11
411.6979874955224
 21
1243.330771303679
 31
0.0
  0
LINE
  5
B7DF
330
1F
100
AcDbEntity
  8
0
 62
     0
 48
0.5
100
AcDbLine
 10
416.1275882153403
 20
1239.974292911379
 30
0.0
 11
416.0281145144446
 21
1240.830771303679
 31
0.0
  0
LINE
  5
B7E0
330
1F
100
AcDbEntity
  8
0
 62
     0
 48
0.5
100
AcDbLine
 10
415.251431697966
 20
1240.456319629583
 30
0.0
 11
416.0281145144446
 21
1240.830771303679
 31
0.0
  0
LINE
  5
B7E1
330
1F
100
AcDbEntity
  8
0
 62
     0
 48
0.5
100
AcDbLine
 10
414.3854062941815
 20
1240.956319629582
 30
0.0
 11
415.1620891106603
 21
1241.330771303679
 31
0.0
  0
LINE
  5
B7E2
330
1F
100
AcDbEntity
  8
0
 62
     0
 48
0.5
100
AcDbLine
 10
414.3955374077714
 20
1240.974292911379
 30
0.0
 11
414.2960637068758
 21
1241.830771303679
 31
0.0
  0
LINE
  5
B7E3
330
1F
100
AcDbEntity
  8
0
 62
     0
 48
0.5
100
AcDbLine
 10
415.2615628115557
 20
1240.474292911379
 30
0.0
 11
415.1620891106603
 21
1241.330771303679
 31
0.0
  0
LINE
  5
B7E4
330
1F
100
AcDbEntity
  8
0
 62
     0
 48
0.5
100
AcDbLine
 10
414.778662425486
 20
1235.448283873529
 30
0.0
 11
414.0019796090071
 21
1235.073832199432
 31
0.0
  0
LINE
  5
B7E5
330
1F
100
AcDbEntity
  8
0
 62
     0
 48
0.5
100
AcDbLine
 10
413.9126370217017
 20
1235.948283873529
 30
0.0
 11
416.1275882153403
 21
1239.974292911379
 31
0.0
  0
LINE
  5
B7E6
330
1F
100
AcDbEntity
  8
0
 62
     0
 48
0.5
100
AcDbLine
 10
413.1359542052228
 20
1235.573832199432
 30
0.0
 11
416.0281145144446
 21
1240.830771303679
 31
0.0
  0
LINE
  5
B7E7
330
1F
100
AcDbEntity
  8
0
 62
     0
 48
0.5
100
AcDbLine
 10
413.0466116179171
 20
1236.448283873529
 30
0.0
 11
415.2615628115557
 21
1240.474292911379
 31
0.0
  0
LINE
  5
B7E8
330
1F
100
AcDbEntity
  8
0
 62
     0
 48
0.5
100
AcDbLine
 10
412.2699288014383
 20
1236.073832199432
 30
0.0
 11
415.1620891106603
 21
1241.330771303679
 31
0.0
  0
LINE
  5
B7E9
330
1F
100
AcDbEntity
  8
0
 62
     0
 48
0.5
100
AcDbLine
 10
413.5193808903969
 20
1241.456319629582
 30
0.0
 11
414.2960637068758
 21
1241.830771303679
 31
0.0
  0
LINE
  5
B7EA
330
1F
100
AcDbEntity
  8
0
 62
     0
 48
0.5
100
AcDbLine
 10
412.1805862141328
 20
1236.948283873529
 30
0.0
 11
414.3955374077714
 21
1240.974292911379
 31
0.0
  0
LINE
  5
B7EB
330
1F
100
AcDbEntity
  8
0
 62
     0
 48
0.5
100
AcDbLine
 10
413.9025059081117
 20
1235.930310591733
 30
0.0
 11
414.0019796090071
 21
1235.073832199432
 31
0.0
  0
LINE
  5
B7EC
330
1F
100
AcDbEntity
  8
0
 62
     0
 48
0.5
100
AcDbLine
 10
411.403903397654
 20
1236.573832199432
 30
0.0
 11
414.2960637068758
 21
1241.830771303679
 31
0.0
  0
LINE
  5
B7ED
330
1F
100
AcDbEntity
  8
0
 62
     0
 48
0.5
100
AcDbLine
 10
397.2579995647291
 20
1241.195767475019
 30
0.0
 11
403.6727480447422
 21
1237.4922107133
 31
0.0
  0
LINE
  5
B7EE
330
1F
100
AcDbEntity
  8
0
 62
     0
 48
0.5
100
AcDbLine
 10
403.2579995647294
 20
1251.588072320432
 30
0.0
 11
403.7030034015883
 21
1251.30434786809
 31
0.0
  0
LINE
  5
B7EF
330
1F
100
AcDbEntity
  8
0
 62
     0
 48
0.5
100
AcDbLine
 10
406.1184083876417
 20
1240.448283873529
 30
0.0
 11
406.0430749360224
 21
1240.41196436642
 31
0.0
  0
LINE
  5
B7F0
330
1F
100
AcDbEntity
  8
0
 62
     0
 48
0.5
100
AcDbLine
 10
404.1862027950046
 20
1237.195767475018
 30
0.0
 11
403.6727480447422
 21
1237.4922107133
 31
0.0
  0
LINE
  5
B7F1
330
1F
100
AcDbEntity
  8
0
 62
     0
 48
0.5
100
AcDbLine
 10
406.2077509749473
 20
1239.573832199432
 30
0.0
 11
409.0999112841692
 21
1244.830771303679
 31
0.0
  0
LINE
  5
B7F2
330
1F
100
AcDbEntity
  8
0
 62
     0
 48
0.5
100
AcDbLine
 10
406.984433791426
 20
1239.948283873529
 30
0.0
 11
409.1993849850647
 21
1243.974292911379
 31
0.0
  0
LINE
  5
B7F3
330
1F
100
AcDbEntity
  8
0
 62
     0
 48
0.5
100
AcDbLine
 10
407.0737763787318
 20
1239.073832199432
 30
0.0
 11
409.9659366879535
 21
1244.330771303679
 31
0.0
  0
LINE
  5
B7F4
330
1F
100
AcDbEntity
  8
0
 62
     0
 48
0.5
100
AcDbLine
 10
407.8504591952106
 20
1239.448283873529
 30
0.0
 11
410.0654103888492
 21
1243.474292911379
 31
0.0
  0
LINE
  5
B7F5
330
1F
100
AcDbEntity
  8
0
 62
     0
 48
0.5
100
AcDbLine
 10
408.7164845989949
 20
1238.948283873529
 30
0.0
 11
407.9398017825161
 21
1238.573832199432
 31
0.0
  0
LINE
  5
B7F6
330
1F
100
AcDbEntity
  8
0
 62
     0
 48
0.5
100
AcDbLine
 10
408.4541519874359
 20
1248.588072320432
 30
0.0
 11
410.1862027950045
 21
1247.588072320431
 31
0.0
  0
LINE
  5
B7F7
330
1F
100
AcDbEntity
  8
0
 62
     0
 48
0.5
100
AcDbLine
 10
408.3992432660887
 20
1244.492967625279
 30
0.0
 11
409.0999112841692
 21
1244.830771303679
 31
0.0
  0
LINE
  5
B7F8
330
1F
100
AcDbEntity
  8
0
 62
     0
 48
0.5
100
AcDbLine
 10
409.5825100027794
 20
1238.448283873529
 30
0.0
 11
408.8058271863006
 21
1238.073832199432
 31
0.0
  0
LINE
  5
B7F9
330
1F
100
AcDbEntity
  8
0
 62
     0
 48
0.5
100
AcDbLine
 10
408.7063534854049
 20
1238.930310591733
 30
0.0
 11
408.8058271863006
 21
1238.073832199432
 31
0.0
  0
LINE
  5
B7FA
330
1F
100
AcDbEntity
  8
0
 62
     0
 48
0.5
100
AcDbLine
 10
409.1892538714749
 20
1243.956319629583
 30
0.0
 11
409.9659366879535
 21
1244.330771303679
 31
0.0
  0
LINE
  5
B7FB
330
1F
100
AcDbEntity
  8
0
 62
     0
 48
0.5
100
AcDbLine
 10
409.1993849850647
 20
1243.974292911379
 30
0.0
 11
409.0999112841692
 21
1244.830771303679
 31
0.0
  0
LINE
  5
B7FC
330
1F
100
AcDbEntity
  8
0
 62
     0
 48
0.5
100
AcDbLine
 10
410.0654103888492
 20
1243.474292911379
 30
0.0
 11
409.9659366879535
 21
1244.330771303679
 31
0.0
  0
LINE
  5
B7FD
330
1F
100
AcDbEntity
  8
0
 62
     0
 48
0.5
100
AcDbLine
 10
409.5723788891895
 20
1238.430310591733
 30
0.0
 11
409.671852590085
 21
1237.573832199432
 31
0.0
  0
LINE
  5
B7FE
330
1F
100
AcDbEntity
  8
0
 62
     0
 48
0.5
100
AcDbLine
 10
406.9743026778361
 20
1239.930310591733
 30
0.0
 11
407.0737763787318
 21
1239.073832199432
 31
0.0
  0
LINE
  5
B7FF
330
1F
100
AcDbEntity
  8
0
 62
     0
 48
0.5
100
AcDbLine
 10
406.984433791426
 20
1239.948283873529
 30
0.0
 11
406.2077509749473
 21
1239.573832199432
 31
0.0
  0
LINE
  5
B800
330
1F
100
AcDbEntity
  8
0
 62
     0
 48
0.5
100
AcDbLine
 10
407.8403280816204
 20
1239.430310591733
 30
0.0
 11
407.9398017825161
 21
1238.573832199432
 31
0.0
  0
LINE
  5
B801
330
1F
100
AcDbEntity
  8
0
 62
     0
 48
0.5
100
AcDbLine
 10
407.8504591952106
 20
1239.448283873529
 30
0.0
 11
407.0737763787318
 21
1239.073832199432
 31
0.0
  0
LINE
  5
B802
330
1F
100
AcDbEntity
  8
0
 62
     0
 48
0.5
100
AcDbLine
 10
410.1862027950045
 20
1247.588072320431
 30
0.0
 11
404.1862027950046
 21
1237.195767475018
 31
0.0
  0
LINE
  5
B803
330
1F
100
AcDbEntity
  8
0
 62
     0
 48
0.5
100
AcDbLine
 10
403.7030034015883
 20
1251.30434786809
 30
0.0
 11
408.4425466549492
 21
1248.567971294926
 31
0.0
  0
LINE
  5
B804
330
1F
100
AcDbEntity
  8
0
 62
     0
 48
0.5
100
AcDbLine
 10
406.1184083876417
 20
1240.448283873529
 30
0.0
 11
407.218423068536
 21
1242.447727048516
 31
0.0
  0
LINE
  5
B805
330
1F
100
AcDbEntity
  8
0
 62
     0
 48
0.5
100
AcDbLine
 10
406.1082772740515
 20
1240.430310591733
 30
0.0
 11
406.2077509749473
 21
1239.573832199432
 31
0.0
  0
ARC
  5
B806
330
1F
100
AcDbEntity
  8
0
 62
     0
 48
0.5
100
AcDbCircle
 10
400.0530805317877
 20
1246.409847990048
 30
0.0
 40
6.0
100
AcDbArc
 50
83.03646164772862
 51
84.99999999999939
  0
CIRCLE
  5
B807
330
1F
100
AcDbEntity
  8
0
 62
     0
 48
0.5
100
AcDbCircle
 10
400.0530805317877
 20
1246.409847990048
 30
0.0
 40
2.1
  0
LINE
  5
B808
330
1F
100
AcDbEntity
  8
0
 62
     0
 48
0.5
100
AcDbLine
 10
394.0530805317875
 20
1252.409847990048
 30
0.0
 11
394.0530805317877
 21
1240.409847990048
 31
0.0
  0
LINE
  5
B809
330
1F
100
AcDbEntity
  8
0
 62
     0
 48
0.5
100
AcDbLine
 10
416.1174571017503
 20
1239.956319629582
 30
0.0
 11
416.8941399182291
 21
1240.330771303679
 31
0.0
  0
LINE
  5
B80A
330
1F
100
AcDbEntity
  8
0
 62
     0
 48
0.5
100
AcDbLine
 10
414.778662425486
 20
1235.448283873529
 30
0.0
 11
416.9936136191248
 21
1239.474292911379
 31
0.0
  0
LINE
  5
B80B
330
1F
100
AcDbEntity
  8
0
 62
     0
 48
0.5
100
AcDbLine
 10
414.0019796090071
 20
1235.073832199432
 30
0.0
 11
416.8941399182291
 21
1240.330771303679
 31
0.0
  0
LINE
  5
B80C
330
1F
100
AcDbEntity
  8
0
 62
     0
 48
0.5
100
AcDbLine
 10
416.9936136191248
 20
1239.474292911379
 30
0.0
 11
416.8941399182291
 21
1240.330771303679
 31
0.0
  0
LINE
  5
B80D
330
1F
100
AcDbEntity
  8
0
 62
     0
 48
0.5
100
AcDbLine
 10
382.3067550457544
 20
1252.363522504014
 30
0.0
 11
400.5760149882739
 21
1252.387016178598
 31
0.0
  0
LINE
  5
B80E
330
1F
100
AcDbEntity
  8
0
 62
     0
 48
0.5
100
AcDbLine
 10
394.0530805317877
 20
1240.409847990048
 30
0.0
 11
382.3530805317876
 21
1240.409847990048
 31
0.0
  0
LINE
  5
B80F
330
1F
100
AcDbEntity
  8
0
 62
     0
 48
0.5
100
AcDbLine
 10
382.3067550457544
 20
1252.363522504014
 30
0.0
 11
382.0492906476731
 21
1252.106058105933
 31
0.0
  0
LINE
  5
B810
330
1F
100
AcDbEntity
  8
0
 62
     0
 48
0.5
100
AcDbLine
 10
382.0530805317876
 20
1246.409847990048
 30
0.0
 11
382.0530805317876
 21
1252.063522504014
 31
0.0
  0
LINE
  5
B811
330
1F
100
AcDbEntity
  8
0
 62
     0
 48
0.5
100
AcDbLine
 10
382.3530805317876
 20
1240.409847990048
 30
0.0
 11
382.0530805317876
 21
1240.709847990048
 31
0.0
  0
LINE
  5
B812
330
1F
100
AcDbEntity
  8
0
 62
     0
 48
0.5
100
AcDbLine
 10
382.0530805317876
 20
1240.709847990048
 30
0.0
 11
382.0530805317876
 21
1246.409847990048
 31
0.0
  0
LINE
  5
B813
330
1F
100
AcDbEntity
  8
Object
 62
     0
 48
0.5
100
AcDbLine
 10
378.3537347078517
 20
1240.567647990048
 30
0.0
 11
378.3537347078518
 21
1252.252047990048
 31
0.0
  0
LINE
  5
B814
330
1F
100
AcDbEntity
  8
Object
 62
     0
 48
0.5
100
AcDbLine
 10
378.2039347078517
 20
1240.417847990048
 30
0.0
 11
378.3537347078517
 21
1240.567647990048
 31
0.0
  0
LINE
  5
B815
330
1F
100
AcDbEntity
  8
Object
 62
     0
 48
0.5
100
AcDbLine
 10
376.4812347078517
 20
1244.858353688963
 30
0.0
 11
378.3537347078517
 21
1246.409847990048
 31
0.0
  0
LINE
  5
B816
330
1F
100
AcDbEntity
  8
Object
 62
     0
 48
0.5
100
AcDbLine
 10
376.4812347078517
 20
1246.409847990048
 30
0.0
 11
376.4812347078517
 21
1240.567647990048
 31
0.0
  0
LINE
  5
B817
330
1F
100
AcDbEntity
  8
Object
 62
     0
 48
0.5
100
AcDbLine
 10
376.6310347078515
 20
1240.417847990048
 30
0.0
 11
376.4812347078517
 21
1240.567647990048
 31
0.0
  0
LINE
  5
B818
330
1F
100
AcDbEntity
  8
Object
 62
     0
 48
0.5
100
AcDbLine
 10
376.6310347078515
 20
1240.417847990048
 30
0.0
 11
378.2039347078517
 21
1240.417847990048
 31
0.0
  0
LINE
  5
B819
330
1F
100
AcDbEntity
  8
Object
 62
     0
 48
0.5
100
AcDbLine
 10
378.3537347078518
 20
1252.252047990048
 30
0.0
 11
378.2039347078518
 21
1252.401847990048
 31
0.0
  0
LINE
  5
B81A
330
1F
100
AcDbEntity
  8
Object
 62
     0
 48
0.5
100
AcDbLine
 10
376.4812347078517
 20
1252.252047990048
 30
0.0
 11
376.6310347078515
 21
1252.401847990048
 31
0.0
  0
LINE
  5
B81B
330
1F
100
AcDbEntity
  8
Object
 62
     0
 48
0.5
100
AcDbLine
 10
378.2039347078518
 20
1252.401847990048
 30
0.0
 11
376.6310347078515
 21
1252.401847990048
 31
0.0
  0
LINE
  5
B81C
330
1F
100
AcDbEntity
  8
Object
 62
     0
 48
0.5
100
AcDbLine
 10
376.4812347078517
 20
1252.252047990048
 30
0.0
 11
376.4812347078517
 21
1246.409847990048
 31
0.0
  0
LINE
  5
B81D
330
1F
100
AcDbEntity
  8
0
 62
     0
 48
0.5
100
AcDbLine
 10
478.7336443289213
 20
1210.221207608815
 30
0.0
 11
422.7018007040681
 21
1242.571207608815
 31
0.0
  0
LINE
  5
B81E
330
1F
100
AcDbEntity
  8
0
 62
     0
 48
0.5
100
AcDbLine
 10
414.7018007040681
 20
1228.714801148264
 30
0.0
 11
470.7336443289213
 21
1196.364801148264
 31
0.0
  0
LINE
  5
B81F
330
1F
100
AcDbEntity
  8
0
 62
     0
 48
0.5
100
AcDbLine
 10
418.4419930829328
 20
1235.79300437854
 30
0.0
 11
417.4419930829328
 21
1234.060953570971
 31
0.0
  0
LINE
  5
B820
330
1F
100
AcDbEntity
  8
0
 62
     0
 48
0.5
100
AcDbLine
 10
418.4419930829328
 20
1235.79300437854
 30
0.0
 11
417.4419930829328
 21
1234.060953570971
 31
0.0
  0
LINE
  5
B821
330
1F
100
AcDbEntity
  8
0
 62
     0
 48
0.5
100
AcDbLine
 10
417.4419930829328
 20
1234.060953570971
 30
0.0
 11
418.4419930829328
 21
1235.79300437854
 31
0.0
  0
LINE
  5
B822
330
1F
100
AcDbEntity
  8
0
 62
     0
 48
0.5
100
AcDbLine
 10
417.4419930829328
 20
1234.060953570971
 30
0.0
 11
419.4419930829329
 21
1237.525055186109
 31
0.0
  0
LINE
  5
B823
330
1F
100
AcDbEntity
  8
0
 62
     0
 48
0.5
100
AcDbLine
 10
422.2919930829329
 20
1242.46139998768
 30
0.0
 11
414.5919930829328
 21
1229.1246087694
 31
0.0
  0
LINE
  5
B824
330
1F
100
AcDbEntity
  8
0
 62
     0
 48
0.5
100
AcDbLine
 10
414.7018007040681
 20
1228.714801148264
 30
0.0
 11
414.5919930829328
 21
1229.1246087694
 31
0.0
  0
LINE
  5
B825
330
1F
100
AcDbEntity
  8
0
 62
     0
 48
0.5
100
AcDbLine
 10
422.7018007040681
 20
1242.571207608815
 30
0.0
 11
422.2919930829329
 21
1242.46139998768
 31
0.0
  0
LINE
  5
B826
330
1F
100
AcDbEntity
  8
0
 62
     0
 48
0.5
100
AcDbLine
 10
418.4419930829328
 20
1235.79300437854
 30
0.0
 11
419.4419930829329
 21
1237.525055186109
 31
0.0
  0
LINE
  5
B827
330
1F
100
AcDbEntity
  8
0
 62
     0
 48
0.5
100
AcDbLine
 10
470.7336443289213
 20
1196.364801148264
 30
0.0
 11
478.7336443289213
 21
1210.221207608815
 31
0.0
  0
LINE
  5
B82C
330
1F
100
AcDbEntity
  8
0
 62
     0
 48
0.5
100
AcDbLine
 10
517.809655897917
 20
1176.024472194645
 30
0.0
 11
473.9133742500317
 21
1201.892966312771
 31
0.0
  0
LINE
  5
B82D
330
1F
100
AcDbEntity
  8
0
 62
     0
 48
0.5
100
AcDbLine
 10
519.6209442781118
 20
1179.161715696302
 30
0.0
 11
475.7246626302266
 21
1205.030209814427
 31
0.0
  0
LINE
  5
B82E
330
1F
100
AcDbEntity
  8
0
 62
     0
 48
0.5
100
AcDbLine
 10
379.711300036655
 20
1098.736137841885
 30
0.0
 11
355.0351535699348
 21
1113.278024438403
 31
0.0
  0
LINE
  5
B82F
330
1F
100
AcDbEntity
  8
0
 62
     0
 48
0.5
100
AcDbLine
 10
381.5225884168499
 20
1101.873381343542
 30
0.0
 11
356.8464419501296
 21
1116.41526794006
 31
0.0
  0
LINE
  5
B830
330
1F
100
AcDbEntity
  8
0
 62
     0
 48
0.5
100
AcDbLine
 10
356.8464419501296
 20
1116.41526794006
 30
0.0
 11
312.9501603022443
 21
1142.283762058185
 31
0.0
  0
LINE
  5
B831
330
1F
100
AcDbEntity
  8
0
 62
     0
 48
0.5
100
AcDbLine
 10
355.0351535699348
 20
1113.278024438403
 30
0.0
 11
311.1388719220494
 21
1139.146518556529
 31
0.0
  0
LINE
  5
B832
330
1F
100
AcDbEntity
  8
0
 62
     0
 48
0.5
100
AcDbLine
 10
440.6279927151006
 20
1074.246944590012
 30
0.0
 11
384.5961490902474
 21
1106.596944590012
 31
0.0
  0
LINE
  5
B833
330
1F
100
AcDbEntity
  8
0
 62
     0
 48
0.5
100
AcDbLine
 10
376.5961490902474
 20
1092.740538129461
 30
0.0
 11
432.6279927151006
 21
1060.390538129461
 31
0.0
  0
LINE
  5
B838
330
1F
100
AcDbEntity
  8
0
 62
     0
 48
0.5
100
AcDbLine
 10
384.186341469112
 20
1106.487136968877
 30
0.0
 11
376.486341469112
 21
1093.150345750596
 31
0.0
  0
LINE
  5
B839
330
1F
100
AcDbEntity
  8
0
 62
     0
 48
0.5
100
AcDbLine
 10
376.4923924934645
 20
1092.560826432212
 30
0.0
 11
376.3825848723292
 21
1092.970634053348
 31
0.0
  0
LINE
  5
B83A
330
1F
100
AcDbEntity
  8
0
 62
     0
 48
0.5
100
AcDbLine
 10
384.5961490902474
 20
1106.596944590012
 30
0.0
 11
384.186341469112
 21
1106.487136968877
 31
0.0
  0
LINE
  5
B83F
330
1F
100
AcDbEntity
  8
0
 62
     0
 48
0.5
100
AcDbLine
 10
432.6279927151006
 20
1060.390538129461
 30
0.0
 11
440.6279927151006
 21
1074.246944590012
 31
0.0
  0
MTEXT
  5
B841
330
1F
100
AcDbEntity
  8
0
 62
     0
 48
0.5
100
AcDbMText
 10
374.5740804402676
 20
1071.138081755734
 30
0.0
 40
6.0
 41
0.0
 71
     1
 72
     1
  1
防犯カバー
 73
     1
 44
1.0
  0
MTEXT
  5
B842
330
1F
100
AcDbEntity
  8
0
 62
     0
 48
0.5
100
AcDbMText
 10
488.338754061608
 20
1054.288794703042
 30
0.0
 40
6.0
 41
0.0
 71
     1
 72
     1
  1
スレッドスリーブ
 73
     1
 44
1.0
  0
MTEXT
  5
B843
330
1F
100
AcDbEntity
  8
0
 62
     0
 48
0.5
100
AcDbMText
 10
420.2941153536757
 20
1042.629942188491
 30
0.0
 40
6.0
 41
0.0
 71
     1
 72
     1
  1
ネジスリーブ
 73
     1
 44
1.0
  0
LINE
  5
B844
330
1F
100
AcDbEntity
  8
0
 62
     0
 48
0.5
100
AcDbLine
 10
356.8847044508879
 20
1216.672649291036
 30
0.0
 11
356.8847044508879
 21
1197.79213070926
 31
0.0
  0
LEADER
  5
B845
330
1F
100
AcDbEntity
  8
0
 62
     0
 48
0.5
100
AcDbLeader
  3
ISO-25
 73
     0
 40
6.0
 76
     3
 10
572.4780862143792
 20
1019.406917438099
 30
0.0
 10
592.9535717243975
 20
1046.132070963985
 30
0.0
 10
594.7745368479822
 20
1046.132070963985
 30
0.0
340
B846
213
0.0
223
-3.0
233
0.0
1001
ACAD
1000
DSTYLE
1002
{
1070
   147
1040
3.0
1070
    77
1070
     0
1002
}
  0
MTEXT
  5
B846
102
{ACAD_REACTORS
330
B845
102
}
330
1F
100
AcDbEntity
  8
0
 62
     0
 48
0.5
100
AcDbMText
 10
597.7745368479823
 20
1049.132070963985
 30
0.0
 40
6.0
 41
20.438
 71
     1
 72
     1
  1

 73
     1
 44
1.0
  0
LEADER
  5
B848
330
1F
100
AcDbEntity
  8
0
 62
     0
 48
0.5
100
AcDbLeader
  3
ISO-25
 73
     0
 40
6.0
 41
46.28571428571429
 76
     3
 10
360.9073250277852
 20
1246.469147419836
 30
0.0
 10
360.9073250277852
 20
1261.171848281641
 30
0.0
 10
396.7622833211094
 20
1261.171848281641
 30
0.0
340
B849
213
0.0
223
-3.0
233
0.0
1001
ACAD
1000
DSTYLE
1002
{
1070
   147
1040
3.0
1070
    77
1070
     0
1002
}
  0
MTEXT
  5
B849
102
{ACAD_REACTORS
330
B848
102
}
330
1F
100
AcDbEntity
  8
0
 62
     0
 48
0.5
100
AcDbMText
 10
399.7622833211094
 20
1264.171848281641
 30
0.0
 40
6.0
 41
0.0
 71
     1
 72
     1
  1
M6ジョイント
 73
     1
 44
1.0
  0
LINE
  5
B852
330
1F
100
AcDbEntity
  8
0
 62
     0
 48
0.5
100
AcDbLine
 10
356.8847044508879
 20
1227.177479371363
 30
0.0
 11
356.8847044508879
 21
1197.79213070926
 31
0.0
  0
LINE
  5
B85A
330
1F
100
AcDbEntity
  8
0
 62
     0
 48
0.5
100
AcDbLine
 10
461.6019110288078
 20
1046.058894363809
 30
0.0
 11
467.2019110288077
 21
1055.758378886194
 31
0.0
  0
LINE
  5
B85B
330
1F
100
AcDbEntity
  8
0
 62
     0
 48
0.5
100
AcDbLine
 10
295.2660251115011
 20
1244.112797140318
 30
0.0
 11
294.7806238987959
 21
1243.400171069821
 31
0.0
  0
LINE
  5
B85C
330
1F
100
AcDbEntity
  8
0
 62
     0
 48
0.5
100
AcDbLine
 10
293.2660251115012
 20
1244.112797140318
 30
0.0
 11
293.1712245944099
 21
1248.706898839782
 31
0.0
  0
LINE
  5
B85D
330
1F
100
AcDbEntity
  8
0
 62
     0
 48
0.5
100
AcDbLine
 10
292.780623898796
 20
1243.400171069821
 30
0.0
 11
292.6568386462755
 21
1249.398894034858
 31
0.0
  0
LINE
  5
B85E
330
1F
100
AcDbEntity
  8
0
 62
     0
 48
0.5
100
AcDbLine
 10
294.2660251115011
 20
1244.112797140318
 30
0.0
 11
294.1712245944099
 21
1248.706898839782
 31
0.0
  0
LINE
  5
B85F
330
1F
100
AcDbEntity
  8
0
 62
     0
 48
0.5
100
AcDbLine
 10
293.780623898796
 20
1243.400171069821
 30
0.0
 11
293.6568386462756
 21
1249.398894034858
 31
0.0
  0
LINE
  5
B860
330
1F
100
AcDbEntity
  8
0
 62
     0
 48
0.5
100
AcDbLine
 10
294.7806238987959
 20
1243.400171069821
 30
0.0
 11
294.6568386462756
 21
1249.398894034858
 31
0.0
  0
LINE
  5
B861
330
1F
100
AcDbEntity
  8
0
 62
     0
 48
0.5
100
AcDbLine
 10
292.1714374335707
 20
1248.686267964361
 30
0.0
 11
292.6568386462755
 21
1249.398894034858
 31
0.0
  0
LINE
  5
B862
330
1F
100
AcDbEntity
  8
0
 62
     0
 48
0.5
100
AcDbLine
 10
293.2660251115012
 20
1244.112797140318
 30
0.0
 11
292.780623898796
 21
1243.400171069821
 31
0.0
  0
LINE
  5
B863
330
1F
100
AcDbEntity
  8
0
 62
     0
 48
0.5
100
AcDbLine
 10
293.2662379506616
 20
1244.092166264898
 30
0.0
 11
293.780623898796
 21
1243.400171069821
 31
0.0
  0
LINE
  5
B864
330
1F
100
AcDbEntity
  8
0
 62
     0
 48
0.5
100
AcDbLine
 10
294.2660251115011
 20
1244.112797140318
 30
0.0
 11
293.780623898796
 21
1243.400171069821
 31
0.0
  0
LINE
  5
B865
330
1F
100
AcDbEntity
  8
0
 62
     0
 48
0.5
100
AcDbLine
 10
294.2662379506616
 20
1244.092166264898
 30
0.0
 11
294.7806238987959
 21
1243.400171069821
 31
0.0
  0
LINE
  5
B866
330
1F
100
AcDbEntity
  8
0
 62
     0
 48
0.5
100
AcDbLine
 10
290.2662379506616
 20
1244.092166264898
 30
0.0
 11
290.780623898796
 21
1243.400171069822
 31
0.0
  0
LINE
  5
B867
330
1F
100
AcDbEntity
  8
0
 62
     0
 48
0.5
100
AcDbLine
 10
291.2660251115012
 20
1244.112797140318
 30
0.0
 11
291.1712245944099
 21
1248.706898839782
 31
0.0
  0
LINE
  5
B868
330
1F
100
AcDbEntity
  8
0
 62
     0
 48
0.5
100
AcDbLine
 10
292.2660251115011
 20
1244.112797140318
 30
0.0
 11
292.1712245944099
 21
1248.706898839782
 31
0.0
  0
LINE
  5
B869
330
1F
100
AcDbEntity
  8
0
 62
     0
 48
0.5
100
AcDbLine
 10
291.2662379506616
 20
1244.092166264898
 30
0.0
 11
291.7806238987959
 21
1243.400171069821
 31
0.0
  0
LINE
  5
B86A
330
1F
100
AcDbEntity
  8
0
 62
     0
 48
0.5
100
AcDbLine
 10
292.2660251115011
 20
1244.112797140318
 30
0.0
 11
291.7806238987959
 21
1243.400171069821
 31
0.0
  0
LINE
  5
B86B
330
1F
100
AcDbEntity
  8
0
 62
     0
 48
0.5
100
AcDbLine
 10
291.2660251115012
 20
1244.112797140318
 30
0.0
 11
290.780623898796
 21
1243.400171069822
 31
0.0
  0
LINE
  5
B86C
330
1F
100
AcDbEntity
  8
0
 62
     0
 48
0.5
100
AcDbLine
 10
290.266025111501
 20
1244.112797140318
 30
0.0
 11
290.2186248529556
 21
1246.409847990048
 31
0.0
  0
LINE
  5
B86D
330
1F
100
AcDbEntity
  8
0
 62
     0
 48
0.5
100
AcDbLine
 10
290.266025111501
 20
1244.112797140318
 30
0.0
 11
290.2186248529555
 21
1244.043207985813
 31
0.0
  0
LINE
  5
B86E
330
1F
100
AcDbEntity
  8
0
 62
     0
 48
0.5
100
AcDbLine
 10
292.2662379506616
 20
1244.092166264898
 30
0.0
 11
292.780623898796
 21
1243.400171069821
 31
0.0
  0
LINE
  5
B86F
330
1F
100
AcDbEntity
  8
0
 62
     0
 48
0.5
100
AcDbLine
 10
295.1712245944098
 20
1248.706898839781
 30
0.0
 11
294.6568386462756
 21
1249.398894034858
 31
0.0
  0
LINE
  5
B870
330
1F
100
AcDbEntity
  8
0
 62
     0
 48
0.5
100
AcDbLine
 10
293.1712245944099
 20
1248.706898839782
 30
0.0
 11
292.6568386462755
 21
1249.398894034858
 31
0.0
  0
LINE
  5
B871
330
1F
100
AcDbEntity
  8
0
 62
     0
 48
0.5
100
AcDbLine
 10
293.1714374335706
 20
1248.686267964361
 30
0.0
 11
293.6568386462756
 21
1249.398894034858
 31
0.0
  0
LINE
  5
B872
330
1F
100
AcDbEntity
  8
0
 62
     0
 48
0.5
100
AcDbLine
 10
294.1712245944099
 20
1248.706898839782
 30
0.0
 11
293.6568386462756
 21
1249.398894034858
 31
0.0
  0
LINE
  5
B873
330
1F
100
AcDbEntity
  8
0
 62
     0
 48
0.5
100
AcDbLine
 10
294.1714374335706
 20
1248.686267964361
 30
0.0
 11
294.6568386462756
 21
1249.398894034858
 31
0.0
  0
LINE
  5
B874
330
1F
100
AcDbEntity
  8
0
 62
     0
 48
0.5
100
AcDbLine
 10
295.2660251115011
 20
1244.112797140318
 30
0.0
 11
295.1712245944098
 21
1248.706898839781
 31
0.0
  0
LINE
  5
B875
330
1F
100
AcDbEntity
  8
0
 62
     0
 48
0.5
100
AcDbLine
 10
296.2660251115012
 20
1244.112797140318
 30
0.0
 11
296.1712245944099
 21
1248.706898839782
 31
0.0
  0
LINE
  5
B876
330
1F
100
AcDbEntity
  8
0
 62
     0
 48
0.5
100
AcDbLine
 10
295.1714374335706
 20
1248.686267964361
 30
0.0
 11
295.6568386462756
 21
1249.398894034858
 31
0.0
  0
LINE
  5
B877
330
1F
100
AcDbEntity
  8
0
 62
     0
 48
0.5
100
AcDbLine
 10
296.1712245944099
 20
1248.706898839782
 30
0.0
 11
295.6568386462756
 21
1249.398894034858
 31
0.0
  0
LINE
  5
B878
330
1F
100
AcDbEntity
  8
0
 62
     0
 48
0.5
100
AcDbLine
 10
295.2662379506617
 20
1244.092166264898
 30
0.0
 11
295.7806238987961
 21
1243.400171069821
 31
0.0
  0
LINE
  5
B879
330
1F
100
AcDbEntity
  8
0
 62
     0
 48
0.5
100
AcDbLine
 10
296.2660251115012
 20
1244.112797140318
 30
0.0
 11
295.7806238987961
 21
1243.400171069821
 31
0.0
  0
LINE
  5
B87A
330
1F
100
AcDbEntity
  8
0
 62
     0
 48
0.5
100
AcDbLine
 10
295.7806238987961
 20
1243.400171069821
 30
0.0
 11
295.6568386462756
 21
1249.398894034858
 31
0.0
  0
LINE
  5
B87B
330
1F
100
AcDbEntity
  8
0
 62
     0
 48
0.5
100
AcDbLine
 10
297.2660251115011
 20
1244.112797140318
 30
0.0
 11
297.1712245944099
 21
1248.706898839782
 31
0.0
  0
LINE
  5
B87C
330
1F
100
AcDbEntity
  8
0
 62
     0
 48
0.5
100
AcDbLine
 10
296.1714374335706
 20
1248.686267964361
 30
0.0
 11
296.6568386462755
 21
1249.398894034858
 31
0.0
  0
LINE
  5
B87D
330
1F
100
AcDbEntity
  8
0
 62
     0
 48
0.5
100
AcDbLine
 10
297.1712245944099
 20
1248.706898839782
 30
0.0
 11
296.6568386462755
 21
1249.398894034858
 31
0.0
  0
LINE
  5
B87E
330
1F
100
AcDbEntity
  8
0
 62
     0
 48
0.5
100
AcDbLine
 10
296.2662379506616
 20
1244.092166264898
 30
0.0
 11
296.7806238987961
 21
1243.400171069821
 31
0.0
  0
LINE
  5
B87F
330
1F
100
AcDbEntity
  8
0
 62
     0
 48
0.5
100
AcDbLine
 10
297.2660251115011
 20
1244.112797140318
 30
0.0
 11
296.7806238987961
 21
1243.400171069821
 31
0.0
  0
LINE
  5
B880
330
1F
100
AcDbEntity
  8
0
 62
     0
 48
0.5
100
AcDbLine
 10
296.7806238987961
 20
1243.400171069821
 30
0.0
 11
296.6568386462755
 21
1249.398894034858
 31
0.0
  0
LINE
  5
B881
330
1F
100
AcDbEntity
  8
0
 62
     0
 48
0.5
100
AcDbLine
 10
298.2660251115012
 20
1244.112797140318
 30
0.0
 11
298.1712245944099
 21
1248.706898839782
 31
0.0
  0
LINE
  5
B882
330
1F
100
AcDbEntity
  8
0
 62
     0
 48
0.5
100
AcDbLine
 10
297.1714374335706
 20
1248.686267964361
 30
0.0
 11
297.6568386462755
 21
1249.398894034858
 31
0.0
  0
LINE
  5
B883
330
1F
100
AcDbEntity
  8
0
 62
     0
 48
0.5
100
AcDbLine
 10
298.1712245944099
 20
1248.706898839782
 30
0.0
 11
297.6568386462755
 21
1249.398894034858
 31
0.0
  0
LINE
  5
B884
330
1F
100
AcDbEntity
  8
0
 62
     0
 48
0.5
100
AcDbLine
 10
298.1714374335706
 20
1248.686267964361
 30
0.0
 11
298.6568386462756
 21
1249.398894034858
 31
0.0
  0
LINE
  5
B885
330
1F
100
AcDbEntity
  8
0
 62
     0
 48
0.5
100
AcDbLine
 10
299.1714374335707
 20
1248.686267964361
 30
0.0
 11
299.6568386462755
 21
1249.398894034858
 31
0.0
  0
LINE
  5
B886
330
1F
100
AcDbEntity
  8
0
 62
     0
 48
0.5
100
AcDbLine
 10
299.1712245944099
 20
1248.706898839781
 30
0.0
 11
298.6568386462756
 21
1249.398894034858
 31
0.0
  0
LINE
  5
B887
330
1F
100
AcDbEntity
  8
0
 62
     0
 48
0.5
100
AcDbLine
 10
291.1714374335706
 20
1248.686267964361
 30
0.0
 11
291.6568386462756
 21
1249.398894034858
 31
0.0
  0
LINE
  5
B888
330
1F
100
AcDbEntity
  8
0
 62
     0
 48
0.5
100
AcDbLine
 10
292.1712245944099
 20
1248.706898839782
 30
0.0
 11
291.6568386462756
 21
1249.398894034858
 31
0.0
  0
LINE
  5
B889
330
1F
100
AcDbEntity
  8
0
 62
     0
 48
0.5
100
AcDbLine
 10
291.1712245944099
 20
1248.706898839782
 30
0.0
 11
290.6568386462755
 21
1249.398894034858
 31
0.0
  0
LINE
  5
B88A
330
1F
100
AcDbEntity
  8
0
 62
     0
 48
0.5
100
AcDbLine
 10
290.2186248529556
 20
1248.755544645946
 30
0.0
 11
290.6568386462755
 21
1249.398894034858
 31
0.0
  0
LINE
  5
B88B
330
1F
100
AcDbEntity
  8
0
 62
     0
 48
0.5
100
AcDbLine
 10
302.2660251115011
 20
1244.112797140318
 30
0.0
 11
302.1712245944098
 21
1248.706898839782
 31
0.0
  0
LINE
  5
B88C
330
1F
100
AcDbEntity
  8
0
 62
     0
 48
0.5
100
AcDbLine
 10
301.1714374335706
 20
1248.686267964361
 30
0.0
 11
301.6568386462756
 21
1249.398894034858
 31
0.0
  0
LINE
  5
B88D
330
1F
100
AcDbEntity
  8
0
 62
     0
 48
0.5
100
AcDbLine
 10
301.780623898796
 20
1243.400171069821
 30
0.0
 11
301.6568386462756
 21
1249.398894034858
 31
0.0
  0
LINE
  5
B88E
330
1F
100
AcDbEntity
  8
0
 62
     0
 48
0.5
100
AcDbLine
 10
302.7806238987961
 20
1243.400171069821
 30
0.0
 11
302.6568386462755
 21
1249.398894034858
 31
0.0
  0
LINE
  5
B88F
330
1F
100
AcDbEntity
  8
0
 62
     0
 48
0.5
100
AcDbLine
 10
303.2660251115012
 20
1244.112797140318
 30
0.0
 11
303.1712245944099
 21
1248.706898839782
 31
0.0
  0
LINE
  5
B890
330
1F
100
AcDbEntity
  8
0
 62
     0
 48
0.5
100
AcDbLine
 10
304.2660251115011
 20
1244.112797140318
 30
0.0
 11
303.780623898796
 21
1243.400171069821
 31
0.0
  0
LINE
  5
B891
330
1F
100
AcDbEntity
  8
0
 62
     0
 48
0.5
100
AcDbLine
 10
303.780623898796
 20
1243.400171069821
 30
0.0
 11
303.6568386462756
 21
1249.398894034858
 31
0.0
  0
LINE
  5
B892
330
1F
100
AcDbEntity
  8
0
 62
     0
 48
0.5
100
AcDbLine
 10
303.2660251115012
 20
1244.112797140318
 30
0.0
 11
302.7806238987961
 21
1243.400171069821
 31
0.0
  0
LINE
  5
B893
330
1F
100
AcDbEntity
  8
0
 62
     0
 48
0.5
100
AcDbLine
 10
301.2660251115011
 20
1244.112797140318
 30
0.0
 11
301.1712245944099
 21
1248.706898839782
 31
0.0
  0
LINE
  5
B894
330
1F
100
AcDbEntity
  8
0
 62
     0
 48
0.5
100
AcDbLine
 10
301.1712245944099
 20
1248.706898839782
 30
0.0
 11
300.6568386462756
 21
1249.398894034858
 31
0.0
  0
LINE
  5
B895
330
1F
100
AcDbEntity
  8
0
 62
     0
 48
0.5
100
AcDbLine
 10
301.2660251115011
 20
1244.112797140318
 30
0.0
 11
300.7806238987961
 21
1243.400171069821
 31
0.0
  0
LINE
  5
B896
330
1F
100
AcDbEntity
  8
0
 62
     0
 48
0.5
100
AcDbLine
 10
300.7806238987961
 20
1243.400171069821
 30
0.0
 11
300.6568386462756
 21
1249.398894034858
 31
0.0
  0
LINE
  5
B897
330
1F
100
AcDbEntity
  8
0
 62
     0
 48
0.5
100
AcDbLine
 10
301.2662379506616
 20
1244.092166264898
 30
0.0
 11
301.780623898796
 21
1243.400171069821
 31
0.0
  0
LINE
  5
B898
330
1F
100
AcDbEntity
  8
0
 62
     0
 48
0.5
100
AcDbLine
 10
302.2660251115011
 20
1244.112797140318
 30
0.0
 11
301.780623898796
 21
1243.400171069821
 31
0.0
  0
LINE
  5
B899
330
1F
100
AcDbEntity
  8
0
 62
     0
 48
0.5
100
AcDbLine
 10
302.2662379506616
 20
1244.092166264898
 30
0.0
 11
302.7806238987961
 21
1243.400171069821
 31
0.0
  0
LINE
  5
B89A
330
1F
100
AcDbEntity
  8
0
 62
     0
 48
0.5
100
AcDbLine
 10
303.2662379506616
 20
1244.092166264898
 30
0.0
 11
303.780623898796
 21
1243.400171069821
 31
0.0
  0
LINE
  5
B89B
330
1F
100
AcDbEntity
  8
0
 62
     0
 48
0.5
100
AcDbLine
 10
297.2662379506616
 20
1244.092166264898
 30
0.0
 11
297.7806238987962
 21
1243.400171069821
 31
0.0
  0
LINE
  5
B89C
330
1F
100
AcDbEntity
  8
0
 62
     0
 48
0.5
100
AcDbLine
 10
298.2660251115012
 20
1244.112797140318
 30
0.0
 11
297.7806238987962
 21
1243.400171069821
 31
0.0
  0
LINE
  5
B89D
330
1F
100
AcDbEntity
  8
0
 62
     0
 48
0.5
100
AcDbLine
 10
297.7806238987962
 20
1243.400171069821
 30
0.0
 11
297.6568386462755
 21
1249.398894034858
 31
0.0
  0
LINE
  5
B89E
330
1F
100
AcDbEntity
  8
0
 62
     0
 48
0.5
100
AcDbLine
 10
298.2662379506616
 20
1244.092166264898
 30
0.0
 11
298.7806238987961
 21
1243.400171069821
 31
0.0
  0
LINE
  5
B89F
330
1F
100
AcDbEntity
  8
0
 62
     0
 48
0.5
100
AcDbLine
 10
298.7806238987961
 20
1243.400171069821
 30
0.0
 11
298.6568386462756
 21
1249.398894034858
 31
0.0
  0
LINE
  5
B8A0
330
1F
100
AcDbEntity
  8
0
 62
     0
 48
0.5
100
AcDbLine
 10
299.2660251115012
 20
1244.112797140318
 30
0.0
 11
299.1712245944099
 21
1248.706898839781
 31
0.0
  0
LINE
  5
B8A1
330
1F
100
AcDbEntity
  8
0
 62
     0
 48
0.5
100
AcDbLine
 10
300.2660251115011
 20
1244.112797140318
 30
0.0
 11
300.1712245944099
 21
1248.706898839782
 31
0.0
  0
LINE
  5
B8A2
330
1F
100
AcDbEntity
  8
0
 62
     0
 48
0.5
100
AcDbLine
 10
300.1712245944099
 20
1248.706898839782
 30
0.0
 11
299.6568386462755
 21
1249.398894034858
 31
0.0
  0
LINE
  5
B8A3
330
1F
100
AcDbEntity
  8
0
 62
     0
 48
0.5
100
AcDbLine
 10
299.2662379506616
 20
1244.092166264898
 30
0.0
 11
299.7806238987961
 21
1243.400171069821
 31
0.0
  0
LINE
  5
B8A4
330
1F
100
AcDbEntity
  8
0
 62
     0
 48
0.5
100
AcDbLine
 10
300.2660251115011
 20
1244.112797140318
 30
0.0
 11
299.7806238987961
 21
1243.400171069821
 31
0.0
  0
LINE
  5
B8A5
330
1F
100
AcDbEntity
  8
0
 62
     0
 48
0.5
100
AcDbLine
 10
299.7806238987961
 20
1243.400171069821
 30
0.0
 11
299.6568386462755
 21
1249.398894034858
 31
0.0
  0
LINE
  5
B8A6
330
1F
100
AcDbEntity
  8
0
 62
     0
 48
0.5
100
AcDbLine
 10
299.2660251115012
 20
1244.112797140318
 30
0.0
 11
298.7806238987961
 21
1243.400171069821
 31
0.0
  0
LINE
  5
B8A7
330
1F
100
AcDbEntity
  8
0
 62
     0
 48
0.5
100
AcDbLine
 10
300.1714374335706
 20
1248.686267964361
 30
0.0
 11
300.6568386462756
 21
1249.398894034858
 31
0.0
  0
LINE
  5
B8A8
330
1F
100
AcDbEntity
  8
0
 62
     0
 48
0.5
100
AcDbLine
 10
300.2662379506617
 20
1244.092166264898
 30
0.0
 11
300.7806238987961
 21
1243.400171069821
 31
0.0
  0
LINE
  5
B8A9
330
1F
100
AcDbEntity
  8
0
 62
     0
 48
0.5
100
AcDbLine
 10
303.1712245944099
 20
1248.706898839782
 30
0.0
 11
302.6568386462755
 21
1249.398894034858
 31
0.0
  0
LINE
  5
B8AA
330
1F
100
AcDbEntity
  8
0
 62
     0
 48
0.5
100
AcDbLine
 10
302.1712245944098
 20
1248.706898839782
 30
0.0
 11
301.6568386462756
 21
1249.398894034858
 31
0.0
  0
LINE
  5
B8AB
330
1F
100
AcDbEntity
  8
0
 62
     0
 48
0.5
100
AcDbLine
 10
302.1714374335706
 20
1248.686267964361
 30
0.0
 11
302.6568386462755
 21
1249.398894034858
 31
0.0
  0
LINE
  5
B8AC
330
1F
100
AcDbEntity
  8
0
 62
     0
 48
0.5
100
AcDbLine
 10
304.2660251115011
 20
1244.112797140318
 30
0.0
 11
304.1712245944099
 21
1248.706898839781
 31
0.0
  0
LINE
  5
B8AD
330
1F
100
AcDbEntity
  8
0
 62
     0
 48
0.5
100
AcDbLine
 10
303.1714374335706
 20
1248.686267964361
 30
0.0
 11
303.6568386462756
 21
1249.398894034858
 31
0.0
  0
LINE
  5
B8AE
330
1F
100
AcDbEntity
  8
0
 62
     0
 48
0.5
100
AcDbLine
 10
304.1712245944099
 20
1248.706898839781
 30
0.0
 11
303.6568386462756
 21
1249.398894034858
 31
0.0
  0
LINE
  5
B8AF
330
1F
100
AcDbEntity
  8
0
 62
     0
 48
0.5
100
AcDbLine
 10
304.7806238987961
 20
1243.400171069821
 30
0.0
 11
304.6568386462755
 21
1249.398894034858
 31
0.0
  0
LINE
  5
B8B0
330
1F
100
AcDbEntity
  8
0
 62
     0
 48
0.5
100
AcDbLine
 10
305.2660251115012
 20
1244.112797140318
 30
0.0
 11
304.7806238987961
 21
1243.400171069821
 31
0.0
  0
LINE
  5
B8B1
330
1F
100
AcDbEntity
  8
0
 62
     0
 48
0.5
100
AcDbLine
 10
304.2662379506616
 20
1244.092166264898
 30
0.0
 11
304.7806238987961
 21
1243.400171069821
 31
0.0
  0
LINE
  5
B8B2
330
1F
100
AcDbEntity
  8
0
 62
     0
 48
0.5
100
AcDbLine
 10
305.1712245944099
 20
1248.706898839782
 30
0.0
 11
304.6568386462755
 21
1249.398894034858
 31
0.0
  0
LINE
  5
B8B3
330
1F
100
AcDbEntity
  8
0
 62
     0
 48
0.5
100
AcDbLine
 10
304.1714374335707
 20
1248.686267964361
 30
0.0
 11
304.6568386462755
 21
1249.398894034858
 31
0.0
  0
LINE
  5
B8B4
330
1F
100
AcDbEntity
  8
0
 62
     0
 48
0.5
100
AcDbLine
 10
305.2660251115012
 20
1244.112797140318
 30
0.0
 11
305.1712245944099
 21
1248.706898839782
 31
0.0
  0
LINE
  5
B8B5
330
1F
100
AcDbEntity
  8
0
 62
     0
 48
0.5
100
AcDbLine
 10
291.7806238987959
 20
1243.400171069821
 30
0.0
 11
291.6568386462756
 21
1249.398894034858
 31
0.0
  0
LINE
  5
B8B6
330
1F
100
AcDbEntity
  8
0
 62
     0
 48
0.5
100
AcDbLine
 10
290.780623898796
 20
1243.400171069822
 30
0.0
 11
290.6568386462755
 21
1249.398894034858
 31
0.0
  0
MTEXT
  5
B8BE
330
1F
100
AcDbEntity
  8
0
 62
     0
 48
0.5
100
AcDbMText
 10
357.7215549150596
 20
822.5308658634675
 30
0.0
 40
6.0
 41
170.9279999999999
 71
     4
 72
     5
  1
 %%c4・%%c3傾斜取付け図
 73
     1
 44
1.0
  0
VIEWPORT
  5
2F
330
1B
100
AcDbEntity
 67
     1
  8
0
100
AcDbViewport
 10
210.8645862540714
 20
149.7815185269692
 30
0.0
 40
479.1862016322689
 41
324.9607266531437
 68
     1
 69
     1
 12
210.8645862540714
 22
149.7815185269692
 13
0.0
 23
0.0
 14
10.0
 24
10.0
 15
10.0
 25
10.0
 16
0.0
 26
0.0
 36
1.0
 17
0.0
 27
0.0
 37
0.0
 42
50.0
 43
0.0
 44
0.0
 45
324.9607266531437
 50
0.0
 51
0.0
 72
   100
 90
    32800
  1

281
     0
 71
     1
 74
     0
110
0.0
120
0.0
130
0.0
111
1.0
121
0.0
131
0.0
112
0.0
122
1.0
132
0.0
 79
     0
146
0.0
  0
LWPOLYLINE
  5
AA
330
1B
100
AcDbEntity
 67
     1
  8
２
 62
     0
100
AcDbPolyline
 90
        4
 70
     1
 43
0.0
 10
1.042221639059562
 20
284.1844718556203
 10
407.757958684845
 20
284.1844718556203
 10
407.757958684845
 20
1.08829855961801
 10
1.042221639059562
 20
1.08829855961801
  0
MTEXT
  5
DC
330
1B
100
AcDbEntity
 67
     1
  8
２
 62
     0
100
AcDbMText
 10
275.257958684845
 20
4.588298559618024
 30
0.0
 40
3.0
 41
55.0
 71
     5
 72
     5
  1
{\fMS UI Gothic|b0|i0|c128|p50;株式会社 アルティマ}
 73
     1
 44
1.0
  0
LINE
  5
DD
330
1B
100
AcDbEntity
 67
     1
  8
２
 62
     0
100
AcDbLine
 10
262.757958684845
 20
8.088298559618039
 30
0.0
 11
302.757958684845
 21
8.088298559618039
 31
0.0
  0
LINE
  5
DE
330
1B
100
AcDbEntity
 67
     1
  8
２
 62
     0
100
AcDbLine
 10
342.7579586848451
 20
23.08829855961798
 30
0.0
 11
247.757958684845
 21
23.08829855961792
 31
0.0
  0
LINE
  5
DF
330
1B
100
AcDbEntity
 67
     1
  8
２
 62
     0
100
AcDbLine
 10
247.7579586848449
 20
18.08829855961798
 30
0.0
 11
342.7579586848451
 21
18.08829855961798
 31
0.0
  0
LINE
  5
E0
330
1B
100
AcDbEntity
 67
     1
  8
２
 62
     0
100
AcDbLine
 10
342.7579586848451
 20
13.08829855961801
 30
0.0
 11
247.7579586848451
 21
13.08829855961798
 31
0.0
  0
LINE
  5
E1
330
1B
100
AcDbEntity
 67
     1
  8
２
 62
     0
100
AcDbLine
 10
352.757958684845
 20
8.08829855961801
 30
0.0
 11
252.8023834435082
 21
8.088298559618039
 31
0.0
  0
LINE
  5
E2
330
1B
100
AcDbEntity
 67
     1
  8
２
 62
     0
100
AcDbLine
 10
407.7579586848449
 20
28.08829855961801
 30
0.0
 11
247.7579586848449
 21
28.08829855961803
 31
0.0
  0
MTEXT
  5
E3
330
1B
100
AcDbEntity
 67
     1
  8
２
 62
     0
100
AcDbMText
 10
255.2579586848449
 20
25.58829855961798
 30
0.0
 40
2.0
 41
15.0
 71
     5
 72
     5
  1
{\fMS UI Gothic|b0|i0|c128|p50;パーツ}
 73
     1
 44
1.0
  0
LINE
  5
E4
330
1B
100
AcDbEntity
 67
     1
  8
２
 62
     0
100
AcDbLine
 10
247.7579586848449
 20
8.088298559618039
 30
0.0
 11
262.757958684845
 21
8.088298559618039
 31
0.0
  0
LINE
  5
E5
330
1B
100
AcDbEntity
 67
     1
  8
２
 62
     0
100
AcDbLine
 10
247.7579586848451
 20
13.08829855961798
 30
0.0
 11
247.7579586848449
 21
18.08829855961798
 31
0.0
  0
LINE
  5
E6
330
1B
100
AcDbEntity
 67
     1
  8
２
 62
     0
100
AcDbLine
 10
247.7579586848449
 20
28.08829855961803
 30
0.0
 11
247.7579586848449
 21
9.237389132921862
 31
0.0
  0
LINE
  5
E7
330
1B
100
AcDbEntity
 67
     1
  8
２
 62
     0
100
AcDbLine
 10
247.7579586848449
 20
9.237389132921862
 30
0.0
 11
247.7579586848449
 21
1.088298559618039
 31
0.0
  0
LINE
  5
E8
330
1B
100
AcDbEntity
 67
     1
  8
２
 62
     0
100
AcDbLine
 10
262.757958684845
 20
8.088298559618039
 30
0.0
 11
262.757958684845
 21
28.08829855961803
 31
0.0
  0
LINE
  5
EC
330
1B
100
AcDbEntity
 67
     1
  8
２
 62
     0
100
AcDbLine
 10
407.757958684845
 20
8.08829855961801
 30
0.0
 11
352.757958684845
 21
8.08829855961801
 31
0.0
  0
MTEXT
  5
ED
330
1B
100
AcDbEntity
 67
     1
  8
２
 62
     0
 48
0.3
100
AcDbMText
 10
317.7579586848451
 20
4.370495529314986
 30
0.0
 40
2.0
 41
20.0
 71
     5
 72
     5
  1
E.Nomura
 73
     1
 44
1.0
  0
MTEXT
  5
EE
330
1B
100
AcDbEntity
 67
     1
  8
２
 62
     0
100
AcDbMText
 10
322.7579586848449
 20
25.588298559618
 30
0.0
 40
2.0
 41
40.0
 71
     5
 72
     5
  1
{\fMS UI Gothic|b0|i0|c128|p50;処　　　理}
 73
     1
 44
1.0
  0
LINE
  5
EF
330
1B
100
AcDbEntity
 67
     1
  8
２
 62
     0
100
AcDbLine
 10
327.757958684845
 20
1.08829855961801
 30
0.0
 11
307.7579586848451
 21
1.08829855961801
 31
0.0
  0
MTEXT
  5
F0
330
1B
100
AcDbEntity
 67
     1
  8
２
 62
     0
100
AcDbMText
 10
282.7579586848449
 20
25.58829855961799
 30
0.0
 40
2.0
 41
40.0
 71
     5
 72
     5
  1
{\fMS UI Gothic|b0|i0|c128|p50;材　　　質}
 73
     1
 44
1.0
  0
LINE
  5
F1
330
1B
100
AcDbEntity
 67
     1
  8
２
 62
     0
100
AcDbLine
 10
302.757958684845
 20
8.088298559618039
 30
0.0
 11
302.757958684845
 21
28.08829855961803
 31
0.0
  0
MTEXT
  5
F2
330
1B
100
AcDbEntity
 67
     1
  8
２
 62
     0
100
AcDbMText
 10
305.2690710641766
 20
4.588298559618021
 30
0.0
 40
2.0
 41
4.9778
 71
     5
 72
     5
  1
{\fMS UI Gothic|b0|i0|c128|p50;製\P図}
 73
     1
 44
1.0
  0
LINE
  5
F3
330
1B
100
AcDbEntity
 67
     1
  8
２
 62
     0
100
AcDbLine
 10
302.757958684845
 20
8.088298559618039
 30
0.0
 11
302.757958684845
 21
1.08829855961801
 31
0.0
  0
LINE
  5
F4
330
1B
100
AcDbEntity
 67
     1
  8
２
 62
     0
100
AcDbLine
 10
307.7579586848451
 20
1.08829855961801
 30
0.0
 11
307.7579586848451
 21
8.08829855961801
 31
0.0
  0
LINE
  5
F5
330
1B
100
AcDbEntity
 67
     1
  8
２
 62
     0
100
AcDbLine
 10
307.7579586848451
 20
8.08829855961801
 30
0.0
 11
302.757958684845
 21
8.088298559618039
 31
0.0
  0
MTEXT
  5
F6
330
1B
100
AcDbEntity
 67
     1
  8
２
 62
     0
100
AcDbMText
 10
347.7579586848451
 20
18.08829855961802
 30
0.0
 40
2.5
 41
10.0
 71
     5
 72
     5
  1
{\fMS UI Gothic|b0|i0|c128|p50;品\P\P名}
 73
     1
 44
1.0
  0
MTEXT
  5
F7
330
1B
100
AcDbEntity
 67
     1
  8
２
 62
     0
100
AcDbMText
 10
347.7579586848451
 20
4.588298559618021
 30
0.0
 40
2.0
 41
10.0
 71
     5
 72
     5
  1
{\fMS UI Gothic|b0|i0|c128|p50;品番}
 73
     1
 44
1.0
  0
LINE
  5
F8
330
1B
100
AcDbEntity
 67
     1
  8
２
 62
     0
100
AcDbLine
 10
342.7579586848451
 20
28.08829855961801
 30
0.0
 11
352.757958684845
 21
28.08829855961801
 31
0.0
  0
LINE
  5
F9
330
1B
100
AcDbEntity
 67
     1
  8
２
 62
     0
100
AcDbLine
 10
352.757958684845
 20
1.08829855961801
 30
0.0
 11
342.7579586848451
 21
1.08829855961801
 31
0.0
  0
LINE
  5
FA
330
1B
100
AcDbEntity
 67
     1
  8
２
 62
     0
100
AcDbLine
 10
342.7579586848451
 20
1.08829855961801
 30
0.0
 11
342.7579586848451
 21
28.08829855961801
 31
0.0
  0
LINE
  5
FB
330
1B
100
AcDbEntity
 67
     1
  8
２
 62
     0
100
AcDbLine
 10
342.7579586848451
 20
1.08829855961801
 30
0.0
 11
332.7579586848451
 21
1.08829855961801
 31
0.0
  0
MTEXT
  5
FC
330
1B
100
AcDbEntity
 67
     1
  8
２
 62
     0
100
AcDbMText
 10
330.2579586848451
 20
4.588298559618017
 30
0.0
 40
2.0
 41
5.0
 71
     5
 72
     5
  1
{\fMS UI Gothic|b0|i0|c128|p50;縮\P尺}
 73
     1
 44
1.0
  0
LINE
  5
FD
330
1B
100
AcDbEntity
 67
     1
  8
２
 62
     0
100
AcDbLine
 10
327.757958684845
 20
8.08829855961801
 30
0.0
 11
327.757958684845
 21
1.08829855961801
 31
0.0
  0
LINE
  5
FE
330
1B
100
AcDbEntity
 67
     1
  8
２
 62
     0
100
AcDbLine
 10
332.7579586848451
 20
1.08829855961801
 30
0.0
 11
332.7579586848451
 21
8.08829855961801
 31
0.0
  0
LINE
  5
FF
330
1B
100
AcDbEntity
 67
     1
  8
２
 62
     0
100
AcDbLine
 10
332.7579586848451
 20
8.08829855961801
 30
0.0
 11
327.757958684845
 21
8.08829855961801
 31
0.0
  0
LINE
  5
100
330
1B
100
AcDbEntity
 67
     1
  8
２
 62
     0
100
AcDbLine
 10
342.7579586848451
 20
8.08829855961801
 30
0.0
 11
342.7579586848451
 21
13.08829855961801
 31
0.0
  0
LINE
  5
101
330
1B
100
AcDbEntity
 67
     1
  8
２
 62
     0
100
AcDbLine
 10
342.7579586848451
 20
18.08829855961798
 30
0.0
 11
342.7579586848451
 21
23.08829855961798
 31
0.0
  0
LINE
  5
102
330
1B
100
AcDbEntity
 67
     1
  8
２
 62
     0
100
AcDbLine
 10
352.757958684845
 20
28.08829855961801
 30
0.0
 11
352.757958684845
 21
8.08829855961801
 31
0.0
  0
LINE
  5
103
330
1B
100
AcDbEntity
 67
     1
  8
２
 62
     0
100
AcDbLine
 10
352.757958684845
 20
8.08829855961801
 30
0.0
 11
352.757958684845
 21
1.08829855961801
 31
0.0
  0
LINE
  5
104
330
1B
100
AcDbEntity
 67
     1
  8
２
 62
     0
100
AcDbLine
 10
407.757958684845
 20
1.08829855961801
 30
0.0
 11
407.7579586848449
 21
28.08829855961801
 31
0.0
  0
LINE
  5
105
330
1B
100
AcDbEntity
 67
     1
  8
２
 62
     0
100
AcDbLine
 10
407.757958684845
 20
1.08829855961801
 30
0.0
 11
407.757958684845
 21
8.08829855961801
 31
0.0
  0
LINE
  5
10E
330
1B
100
AcDbEntity
 67
     1
  8
２
 62
     0
 48
0.3
100
AcDbLine
 10
348.1319795129643
 20
277.1869416790318
 30
0.0
 11
407.82803226079
 21
277.1869416790318
 31
0.0
  0
LINE
  5
10F
330
1B
100
AcDbEntity
 67
     1
  8
２
 62
     0
 48
0.3
100
AcDbLine
 10
348.1319795129643
 20
277.1869416790318
 30
0.0
 11
348.1319795129643
 21
284.1844718556203
 31
0.0
  0
LINE
  5
111
330
1B
100
AcDbEntity
 67
     1
  8
２
 62
     0
 48
0.3
100
AcDbLine
 10
358.9855818391189
 20
284.1844718556203
 30
0.0
 11
358.9855818391189
 21
277.1869416790318
 31
0.0
  0
MTEXT
  5
112
330
1B
100
AcDbEntity
 67
     1
  8
２
 62
     0
100
AcDbMText
 10
255.2579586848451
 20
10.58829855961801
 30
0.0
 40
2.5
 41
15.0
 71
     5
 72
     5
  1
{\fMS UI Gothic|b0|i0|c128|p17;１}
 73
     1
 44
1.0
  0
MTEXT
  5
113
330
1B
100
AcDbEntity
 67
     1
  8
２
 62
     0
100
AcDbMText
 10
255.2579586848449
 20
15.58829855961798
 30
0.0
 40
2.5
 41
15.0
 71
     5
 72
     5
  1
{\fMS UI Gothic|b0|i0|c128|p17;２}
 73
     1
 44
1.0
  0
MTEXT
  5
114
330
1B
100
AcDbEntity
 67
     1
  8
２
 62
     0
100
AcDbMText
 10
255.257958684845
 20
20.58829855961795
 30
0.0
 40
2.5
 41
15.0
 71
     5
 72
     5
  1
{\fMS UI Gothic|b0|i0|c128|p17;３}
 73
     1
 44
1.0
  0
MTEXT
  5
115
330
1B
100
AcDbEntity
 67
     1
  8
２
 62
     0
100
AcDbMText
 10
353.5587795129643
 20
280.6857067673261
 30
0.0
 40
2.5
 41
10.8536
 71
     5
 72
     5
  1
{\fMS UI Gothic|b0|i0|c128|p17;日付}
 73
     1
 44
1.0
  0
MTEXT
  5
1DD
330
1B
100
AcDbEntity
 67
     1
  8
１
100
AcDbMText
 10
187.6389970102438
 20
148.8327383458293
 30
0.0
 40
2.5
 41
0.0
 71
     9
 72
     1
  1

  7
ｽﾀｲﾙ1
 73
     1
 44
1.0
  0
MTEXT
  5
1DF
330
1B
100
AcDbEntity
 67
     1
  8
１
100
AcDbMText
 10
125.9251163363451
 20
100.1557259194321
 30
0.0
 40
2.5
 41
0.0
 71
     9
 72
     1
  1

  7
ｽﾀｲﾙ1
 73
     1
 44
1.0
  0
MTEXT
  5
1F5
330
1B
100
AcDbEntity
 67
     1
  8
１
100
AcDbMText
 10
95.93852678293661
 20
241.1781167614512
 30
0.0
 40
2.5
 41
0.0
 71
     1
 72
     1
  1

  7
ｽﾀｲﾙ1
 73
     1
 44
1.0
  0
MTEXT
  5
1F7
330
1B
100
AcDbEntity
 67
     1
  8
１
100
AcDbMText
 10
103.8845037960281
 20
221.796204377297
 30
0.0
 40
2.5
 41
0.0
 71
     1
 72
     1
  1

  7
ｽﾀｲﾙ1
 73
     1
 44
1.0
  0
ENDSEC
  0
SECTION
  2
OBJECTS
  0
DICTIONARY
  5
C
330
0
100
AcDbDictionary
281
     1
  3
ACAD_GROUP
350
D
  3
ACAD_IMAGE_VARS
350
2B
  3
ACAD_LAYOUT
350
1A
  3
ACAD_MLINESTYLE
350
17
  3
ACAD_PLOTSETTINGS
350
19
  3
ACAD_PLOTSTYLENAME
350
E
  3
AcadDim
350
B847
  3
AcDbVariableDictionary
350
65AD
  3
DWGPROPS
350
7E1
  0
DICTIONARY
  5
D
102
{ACAD_REACTORS
330
C
102
}
330
C
100
AcDbDictionary
281
     1
  0
RASTERVARIABLES
  5
2B
102
{ACAD_REACTORS
330
C
102
}
330
C
100
AcDbRasterVariables
 90
        0
 70
     1
 71
     1
 72
     1
  0
DICTIONARY
  5
1A
102
{ACAD_REACTORS
330
C
102
}
330
C
100
AcDbDictionary
281
     1
  3
Model
350
22
  3
ﾚｲｱｳﾄ1
350
1E
  3
ﾚｲｱｳﾄ2
350
26
  0
DICTIONARY
  5
17
102
{ACAD_REACTORS
330
C
102
}
330
C
100
AcDbDictionary
281
     1
  3
Standard
350
18
  0
DICTIONARY
  5
19
102
{ACAD_REACTORS
330
C
102
}
330
C
100
AcDbDictionary
281
     1
  0
ACDBDICTIONARYWDFLT
  5
E
102
{ACAD_REACTORS
330
C
102
}
330
C
100
AcDbDictionary
281
     1
  3
Normal
350
F
100
AcDbDictionaryWithDefault
340
F
  0
XRECORD
  5
B847
102
{ACAD_REACTORS
330
C
102
}
330
C
100
AcDbXrecord
280
     1
 90
   990106
  3

 60
     0
 61
     0
 62
     1
 63
     3
 64
     0
 65
     0
 66
     0
 67
     3
 68
     1
 69
     0
 70
     0
 71
     0
 72
     0
 40
20.43801309868158
170
     0
340
B849
  0
DICTIONARY
  5
65AD
102
{ACAD_REACTORS
330
C
102
}
330
C
100
AcDbDictionary
281
     1
  3
SORTENTS
350
65AE
  0
XRECORD
  5
7E1
102
{ACAD_REACTORS
330
C
102
}
330
C
100
AcDbXrecord
280
     1
  1
DWGPROPS COOKIE
  2

  3

  4

  6

  7

  8

  9

300
=
301
=
302
=
303
=
304
=
305
=
306
=
307
=
308
=
309
=
 40
0.1525764814814815
 41
2454873.622250069
 42
2455268.41966037
  1

 90
        0
  0
LAYOUT
  5
22
102
{ACAD_REACTORS
330
1A
102
}
330
1A
100
AcDbPlotSettings
  1

  2
RICOH IPSiO G515
  4
A3
  6

 40
5.873749732971191
 41
5.873747825622558
 42
5.873748779296875
 43
5.873748779296875
 44
296.9259948730469
 45
419.9466552734374
 46
0.0
 47
0.0
 48
0.0
 49
0.0
140
0.0
141
0.0
142
1.0
143
1.959971811730723
 70
 11952
 72
     1
 73
     1
 74
     1
  7

 75
     0
147
0.5102114193759578
148
117.6657051803588
149
-817.5266692991444
100
AcDbLayout
  1
Model
 70
     1
 71
     0
 10
0.0
 20
0.0
 11
12.0
 21
9.0
 12
0.0
 22
0.0
 32
0.0
 14
0.0
 24
0.0
 34
0.0
 15
0.0
 25
0.0
 35
0.0
146
0.0
 13
0.0
 23
0.0
 33
0.0
 16
1.0
 26
0.0
 36
0.0
 17
0.0
 27
1.0
 37
0.0
 76
     0
330
1F
  0
LAYOUT
  5
1E
102
{ACAD_REACTORS
330
1A
102
}
330
1A
100
AcDbPlotSettings
  1

  2
RICOH imagio MP C3500 RPCS
  4
A3
  6

 40
5.873749732971191
 41
5.873747825622558
 42
5.873748779296875
 43
5.873748779296875
 44
296.9259948730469
 45
419.9466552734374
 46
0.0
 47
0.0
 48
0.0
 49
0.0
140
0.0
141
0.0
142
1.0
143
1.0
 70
   688
 72
     1
 73
     1
 74
     5
  7

 75
    16
147
1.0
148
0.0
149
0.0
100
AcDbLayout
  1
ﾚｲｱｳﾄ1
 70
     1
 71
     1
 10
-5.873748779296875
 20
-5.873749732971191
 11
414.0729064941406
 21
291.0522451400757
 12
0.0
 22
0.0
 32
0.0
 14
1.042221639059562
 24
1.08829855961801
 34
0.0
 15
407.82803226079
 25
284.1844718556203
 35
0.0
146
0.0
 13
0.0
 23
0.0
 33
0.0
 16
1.0
 26
0.0
 36
0.0
 17
0.0
 27
1.0
 37
0.0
 76
     0
330
1B
331
2F
  0
LAYOUT
  5
26
102
{ACAD_REACTORS
330
1A
102
}
330
1A
100
AcDbPlotSettings
  1

  2
RICOH imagio Neo C380 RPCS
  4

  6

 40
0.0
 41
0.0
 42
0.0
 43
0.0
 44
0.0
 45
0.0
 46
0.0
 47
0.0
 48
0.0
 49
0.0
140
0.0
141
0.0
142
1.0
143
1.0
 70
   688
 72
     0
 73
     1
 74
     5
  7

 75
    16
147
1.0
148
0.0
149
0.0
100
AcDbLayout
  1
ﾚｲｱｳﾄ2
 70
     1
 71
     2
 10
0.0
 20
0.0
 11
0.0
 21
0.0
 12
0.0
 22
0.0
 32
0.0
 14
0.0
 24
0.0
 34
0.0
 15
0.0
 25
0.0
 35
0.0
146
0.0
 13
0.0
 23
0.0
 33
0.0
 16
1.0
 26
0.0
 36
0.0
 17
0.0
 27
1.0
 37
0.0
 76
     0
330
23
331
922
  0
MLINESTYLE
  5
18
102
{ACAD_REACTORS
330
17
102
}
330
17
100
AcDbMlineStyle
  2
STANDARD
 70
     0
  3

 62
   256
 51
90.0
 52
90.0
 71
     2
 49
0.5
 62
   256
  6
BYLAYER
 49
-0.5
 62
   256
  6
BYLAYER
  0
ACDBPLACEHOLDER
  5
F
102
{ACAD_REACTORS
330
E
102
}
330
E
  0
DICTIONARYVAR
  5
65AE
102
{ACAD_REACTORS
330
65AD
102
}
330
65AD
100
DictionaryVariables
280
     0
  1
96
  0
ENDSEC
  0
EOF
