  0
SECTION
  2
HEADER
  9
$ACADVER
  1
AC1015
  9
$ACADMAINTVER
 70
     6
  9
$DWGCODEPAGE
  3
ANSI_932
  9
$INSBASE
 10
0.0
 20
0.0
 30
0.0
  9
$EXTMIN
 10
1.000000000000000E+20
 20
1.000000000000000E+20
 30
1.000000000000000E+20
  9
$EXTMAX
 10
-1.000000000000000E+20
 20
-1.000000000000000E+20
 30
-1.000000000000000E+20
  9
$LIMMIN
 10
0.0
 20
0.0
  9
$LIMMAX
 10
420.0
 20
297.0
  9
$ORTHOMODE
 70
     0
  9
$REGENMODE
 70
     1
  9
$FILLMODE
 70
     1
  9
$QTEXTMODE
 70
     0
  9
$MIRRTEXT
 70
     1
  9
$LTSCALE
 40
1.0
  9
$ATTMODE
 70
     1
  9
$TEXTSIZE
 40
3.0
  9
$TRACEWID
 40
1.0
  9
$TEXTSTYLE
  7
Standard
  9
$CLAYER
  8
0
  9
$CELTYPE
  6
ByLayer
  9
$CECOLOR
 62
     0
  9
$CELTSCALE
 40
0.3
  9
$DISPSILH
 70
     0
  9
$DIMSCALE
 40
1.0
  9
$DIMASZ
 40
2.5
  9
$DIMEXO
 40
0.625
  9
$DIMDLI
 40
3.75
  9
$DIMRND
 40
0.0
  9
$DIMDLE
 40
0.0
  9
$DIMEXE
 40
1.25
  9
$DIMTP
 40
0.0
  9
$DIMTM
 40
0.0
  9
$DIMTXT
 40
2.5
  9
$DIMCEN
 40
2.5
  9
$DIMTSZ
 40
0.0
  9
$DIMTOL
 70
     0
  9
$DIMLIM
 70
     0
  9
$DIMTIH
 70
     0
  9
$DIMTOH
 70
     0
  9
$DIMSE1
 70
     0
  9
$DIMSE2
 70
     0
  9
$DIMTAD
 70
     1
  9
$DIMZIN
 70
     8
  9
$DIMBLK
  1

  9
$DIMASO
 70
     1
  9
$DIMSHO
 70
     1
  9
$DIMPOST
  1

  9
$DIMAPOST
  1

  9
$DIMALT
 70
     0
  9
$DIMALTD
 70
     3
  9
$DIMALTF
 40
0.03937007874016
  9
$DIMLFAC
 40
1.0
  9
$DIMTOFL
 70
     1
  9
$DIMTVP
 40
0.0
  9
$DIMTIX
 70
     0
  9
$DIMSOXD
 70
     0
  9
$DIMSAH
 70
     0
  9
$DIMBLK1
  1

  9
$DIMBLK2
  1

  9
$DIMSTYLE
  2
ISO-25
  9
$DIMCLRD
 70
     0
  9
$DIMCLRE
 70
     0
  9
$DIMCLRT
 70
     0
  9
$DIMTFAC
 40
1.0
  9
$DIMGAP
 40
0.625
  9
$DIMJUST
 70
     0
  9
$DIMSD1
 70
     0
  9
$DIMSD2
 70
     0
  9
$DIMTOLJ
 70
     0
  9
$DIMTZIN
 70
     8
  9
$DIMALTZ
 70
     0
  9
$DIMALTTZ
 70
     0
  9
$DIMUPT
 70
     0
  9
$DIMDEC
 70
     2
  9
$DIMTDEC
 70
     2
  9
$DIMALTU
 70
     2
  9
$DIMALTTD
 70
     3
  9
$DIMTXSTY
  7
Standard
  9
$DIMAUNIT
 70
     0
  9
$DIMADEC
 70
     0
  9
$DIMALTRND
 40
0.0
  9
$DIMAZIN
 70
     0
  9
$DIMDSEP
 70
    44
  9
$DIMATFIT
 70
     3
  9
$DIMFRAC
 70
     0
  9
$DIMLDRBLK
  1

  9
$DIMLUNIT
 70
     2
  9
$DIMLWD
 70
    -2
  9
$DIMLWE
 70
    -2
  9
$DIMTMOVE
 70
     0
  9
$LUNITS
 70
     2
  9
$LUPREC
 70
     4
  9
$SKETCHINC
 40
1.0
  9
$FILLETRAD
 40
5.0
  9
$AUNITS
 70
     0
  9
$AUPREC
 70
     0
  9
$MENU
  1
.
  9
$ELEVATION
 40
0.0
  9
$PELEVATION
 40
0.0
  9
$THICKNESS
 40
0.0
  9
$LIMCHECK
 70
     0
  9
$CHAMFERA
 40
0.5
  9
$CHAMFERB
 40
0.75
  9
$CHAMFERC
 40
20.0
  9
$CHAMFERD
 40
0.0
  9
$SKPOLY
 70
     0
  9
$TDCREATE
 40
2453895.692694328
  9
$TDUCREATE
 40
2453895.317694328
  9
$TDUPDATE
 40
2459109.657840706
  9
$TDUUPDATE
 40
2459109.282840706
  9
$TDINDWG
 40
0.2245367477
  9
$TDUSRTIMER
 40
0.2245354745
  9
$USRTIMER
 70
     1
  9
$ANGBASE
 50
0.0
  9
$ANGDIR
 70
     0
  9
$PDMODE
 70
     0
  9
$PDSIZE
 40
0.0
  9
$PLINEWID
 40
0.0
  9
$SPLFRAME
 70
     0
  9
$SPLINETYPE
 70
     6
  9
$SPLINESEGS
 70
     8
  9
$HANDSEED
  5
FBF
  9
$SURFTAB1
 70
     6
  9
$SURFTAB2
 70
     6
  9
$SURFTYPE
 70
     6
  9
$SURFU
 70
     6
  9
$SURFV
 70
     6
  9
$UCSBASE
  2

  9
$UCSNAME
  2

  9
$UCSORG
 10
0.0
 20
0.0
 30
0.0
  9
$UCSXDIR
 10
1.0
 20
0.0
 30
0.0
  9
$UCSYDIR
 10
0.0
 20
1.0
 30
0.0
  9
$UCSORTHOREF
  2

  9
$UCSORTHOVIEW
 70
     0
  9
$UCSORGTOP
 10
0.0
 20
0.0
 30
0.0
  9
$UCSORGBOTTOM
 10
0.0
 20
0.0
 30
0.0
  9
$UCSORGLEFT
 10
0.0
 20
0.0
 30
0.0
  9
$UCSORGRIGHT
 10
0.0
 20
0.0
 30
0.0
  9
$UCSORGFRONT
 10
0.0
 20
0.0
 30
0.0
  9
$UCSORGBACK
 10
0.0
 20
0.0
 30
0.0
  9
$PUCSBASE
  2

  9
$PUCSNAME
  2

  9
$PUCSORG
 10
0.0
 20
0.0
 30
0.0
  9
$PUCSXDIR
 10
1.0
 20
0.0
 30
0.0
  9
$PUCSYDIR
 10
0.0
 20
1.0
 30
0.0
  9
$PUCSORTHOREF
  2

  9
$PUCSORTHOVIEW
 70
     0
  9
$PUCSORGTOP
 10
0.0
 20
0.0
 30
0.0
  9
$PUCSORGBOTTOM
 10
0.0
 20
0.0
 30
0.0
  9
$PUCSORGLEFT
 10
0.0
 20
0.0
 30
0.0
  9
$PUCSORGRIGHT
 10
0.0
 20
0.0
 30
0.0
  9
$PUCSORGFRONT
 10
0.0
 20
0.0
 30
0.0
  9
$PUCSORGBACK
 10
0.0
 20
0.0
 30
0.0
  9
$USERI1
 70
     0
  9
$USERI2
 70
     0
  9
$USERI3
 70
     0
  9
$USERI4
 70
     0
  9
$USERI5
 70
     0
  9
$USERR1
 40
0.0
  9
$USERR2
 40
0.0
  9
$USERR3
 40
0.0
  9
$USERR4
 40
0.0
  9
$USERR5
 40
0.0
  9
$WORLDVIEW
 70
     1
  9
$SHADEDGE
 70
     3
  9
$SHADEDIF
 70
    70
  9
$TILEMODE
 70
     0
  9
$MAXACTVP
 70
    64
  9
$PINSBASE
 10
0.0
 20
0.0
 30
0.0
  9
$PLIMCHECK
 70
     0
  9
$PEXTMIN
 10
36.79231189179972
 20
5.205663222579232
 30
-0.0000000349181948
  9
$PEXTMAX
 10
298.8176644821185
 20
195.2389940809524
 30
0.0000000814935746
  9
$PLIMMIN
 10
19.31982785548422
 20
-4.773546072597362
  9
$PLIMMAX
 10
316.3198278554842
 20
205.2264539274026
  9
$UNITMODE
 70
     0
  9
$VISRETAIN
 70
     1
  9
$PLINEGEN
 70
     0
  9
$PSLTSCALE
 70
     1
  9
$TREEDEPTH
 70
  3020
  9
$CMLSTYLE
  2
Standard
  9
$CMLJUST
 70
     0
  9
$CMLSCALE
 40
20.0
  9
$PROXYGRAPHICS
 70
     1
  9
$MEASUREMENT
 70
     1
  9
$CELWEIGHT
370
    -1
  9
$ENDCAPS
280
     0
  9
$JOINSTYLE
280
     0
  9
$LWDISPLAY
290
     0
  9
$INSUNITS
 70
     4
  9
$HYPERLINKBASE
  1

  9
$STYLESHEET
  1

  9
$XEDIT
290
     1
  9
$CEPSNTYPE
380
     0
  9
$PSTYLEMODE
290
     0
  9
$FINGERPRINTGUID
  2
{048D73A1-A980-11D2-9A39-0060089B3A3F}
  9
$VERSIONGUID
  2
{60C37EAD-A1A0-4FF4-9C38-ABA59571DC73}
  9
$EXTNAMES
290
     1
  9
$PSVPSCALE
 40
0.0
  9
$OLESTARTUP
290
     0
  0
ENDSEC
  0
SECTION
  2
CLASSES
  0
CLASS
  1
ACDBDICTIONARYWDFLT
  2
AcDbDictionaryWithDefault
  3
AutoCAD 2000
 90
        0
280
     0
281
     0
  0
CLASS
  1
ACDBPLACEHOLDER
  2
AcDbPlaceHolder
  3
AutoCAD 2000
 90
        0
280
     0
281
     0
  0
CLASS
  1
LAYOUT
  2
AcDbLayout
  3
AutoCAD 2000
 90
        0
280
     0
281
     0
  0
CLASS
  1
PLOTSETTINGS
  2
AcDbPlotSettings
  3
AutoCAD 2000
 90
        0
280
     0
281
     0
  0
CLASS
  1
DICTIONARYVAR
  2
AcDbDictionaryVar
  3
AutoCAD 2000
 90
        0
280
     0
281
     0
  0
ENDSEC
  0
SECTION
  2
TABLES
  0
TABLE
  2
VPORT
  5
8
330
0
100
AcDbSymbolTable
 70
     1
  0
VPORT
  5
FF
330
8
100
AcDbSymbolTableRecord
100
AcDbViewportTableRecord
  2
*Active
 70
     0
 10
0.0
 20
0.0
 11
1.0
 21
1.0
 12
456.8348989517673
 22
245.6023170182188
 13
0.0
 23
0.0
 14
10.0
 24
10.0
 15
10.0
 25
10.0
 16
0.0
 26
0.0
 36
1.0
 17
0.0
 27
0.0
 37
0.0
 40
536.6907785088731
 41
1.709923664122137
 42
50.0
 43
0.0
 44
0.0
 50
0.0
 51
0.0
 71
     0
 72
   100
 73
     1
 74
     3
 75
     0
 76
     0
 77
     0
 78
     0
281
     0
 65
     1
110
0.0
120
0.0
130
0.0
111
1.0
121
0.0
131
0.0
112
0.0
122
1.0
132
0.0
 79
     0
146
0.0
  0
ENDTAB
  0
TABLE
  2
LTYPE
  5
5
330
0
100
AcDbSymbolTable
 70
     4
  0
LTYPE
  5
14
330
5
100
AcDbSymbolTableRecord
100
AcDbLinetypeTableRecord
  2
ByBlock
 70
     0
  3

 72
    65
 73
     0
 40
0.0
  0
LTYPE
  5
15
330
5
100
AcDbSymbolTableRecord
100
AcDbLinetypeTableRecord
  2
ByLayer
 70
     0
  3

 72
    65
 73
     0
 40
0.0
  0
LTYPE
  5
16
330
5
100
AcDbSymbolTableRecord
100
AcDbLinetypeTableRecord
  2
Continuous
 70
     0
  3
Solid line
 72
    65
 73
     0
 40
0.0
  0
LTYPE
  5
139
330
5
100
AcDbSymbolTableRecord
100
AcDbLinetypeTableRecord
  2
CENTER
 70
     0
  3
Center ____ _ ____ _ ____ _ ____ _ ____ _ ____
 72
    65
 73
     4
 40
50.8
 49
31.75
 74
     0
 49
-6.349999999999999
 74
     0
 49
6.349999999999999
 74
     0
 49
-6.349999999999999
 74
     0
  0
LTYPE
  5
13A
330
5
100
AcDbSymbolTableRecord
100
AcDbLinetypeTableRecord
  2
HIDDEN
 70
     0
  3
Hidden __ __ __ __ __ __ __ __ __ __ __ __ __ _
 72
    65
 73
     2
 40
9.524999999999998
 49
6.349999999999999
 74
     0
 49
-3.174999999999999
 74
     0
  0
LTYPE
  5
13B
330
5
100
AcDbSymbolTableRecord
100
AcDbLinetypeTableRecord
  2
PHANTOM
 70
     0
  3
Phantom ______  __  __  ______  __  __  ______
 72
    65
 73
     6
 40
63.5
 49
31.75
 74
     0
 49
-6.349999999999999
 74
     0
 49
6.349999999999999
 74
     0
 49
-6.349999999999999
 74
     0
 49
6.349999999999999
 74
     0
 49
-6.349999999999999
 74
     0
  0
ENDTAB
  0
TABLE
  2
LAYER
  5
2
330
0
100
AcDbSymbolTable
 70
     9
  0
LAYER
  5
10
330
2
100
AcDbSymbolTableRecord
100
AcDbLayerTableRecord
  2
0
 70
     0
 62
     2
  6
Continuous
370
     9
390
F
  0
LAYER
  5
42
330
2
100
AcDbSymbolTableRecord
100
AcDbLayerTableRecord
  2
Object
 70
     0
 62
     3
  6
Continuous
370
    18
390
F
  0
LAYER
  5
C3
330
2
100
AcDbSymbolTableRecord
100
AcDbLayerTableRecord
  2
Defined Points
 70
     0
 62
     2
  6
Continuous
290
     0
370
    13
390
F
  0
LAYER
  5
C9
330
2
100
AcDbSymbolTableRecord
100
AcDbLayerTableRecord
  2
Title Block
 70
     0
 62
     2
  6
Continuous
370
    13
390
F
  0
LAYER
  5
CA
330
2
100
AcDbSymbolTableRecord
100
AcDbLayerTableRecord
  2
Viewport
 70
     0
 62
     2
  6
Continuous
370
    13
390
F
  0
LAYER
  5
146
330
2
100
AcDbSymbolTableRecord
100
AcDbLayerTableRecord
  2
Center
 70
     0
 62
     6
  6
CENTER
370
    13
390
F
  0
LAYER
  5
147
330
2
100
AcDbSymbolTableRecord
100
AcDbLayerTableRecord
  2
Hidden
 70
     0
 62
     4
  6
HIDDEN
370
    13
390
F
  0
LAYER
  5
148
330
2
100
AcDbSymbolTableRecord
100
AcDbLayerTableRecord
  2
Phantom
 70
     0
 62
     4
  6
PHANTOM
370
    13
390
F
  0
LAYER
  5
16C
330
2
100
AcDbSymbolTableRecord
100
AcDbLayerTableRecord
  2
Defpoints
 70
     0
 62
     7
  6
Continuous
290
     0
370
    -3
390
F
  0
ENDTAB
  0
TABLE
  2
STYLE
  5
3
330
0
100
AcDbSymbolTable
 70
     3
  0
STYLE
  5
11
330
3
100
AcDbSymbolTableRecord
100
AcDbTextStyleTableRecord
  2
Standard
 70
     0
 40
0.0
 41
1.0
 50
0.0
 71
     0
 42
3.0
  3
txt.shx
  4
bigfont.shx
  0
STYLE
  5
3B
330
3
100
AcDbSymbolTableRecord
100
AcDbTextStyleTableRecord
  2
Roman
 70
     0
 40
0.0
 41
1.0
 50
0.0
 71
     0
 42
5.0
  3
romans
  4
bigfont
  0
STYLE
  5
138
330
3
100
AcDbSymbolTableRecord
100
AcDbTextStyleTableRecord
  2

 70
     1
 40
0.0
 41
1.0
 50
0.0
 71
     0
 42
2.5
  3
ltypeshp.shx
  4

  0
ENDTAB
  0
TABLE
  2
VIEW
  5
6
330
0
100
AcDbSymbolTable
 70
     0
  0
ENDTAB
  0
TABLE
  2
UCS
  5
7
330
0
100
AcDbSymbolTable
 70
     0
  0
ENDTAB
  0
TABLE
  2
APPID
  5
9
330
0
100
AcDbSymbolTable
 70
     1
  0
APPID
  5
12
330
9
100
AcDbSymbolTableRecord
100
AcDbRegAppTableRecord
  2
ACAD
 70
     0
  0
ENDTAB
  0
TABLE
  2
DIMSTYLE
  5
A
330
0
100
AcDbSymbolTable
 70
     3
100
AcDbDimStyleTable
 71
     2
340
27
340
C2
  0
DIMSTYLE
105
27
102
{ACAD_REACTORS
330
EB6
330
EA7
330
EAA
330
E75
330
E76
102
}
330
A
100
AcDbSymbolTableRecord
100
AcDbDimStyleTableRecord
  2
ISO-25
 70
     0
 41
2.5
 42
0.625
 43
3.75
 44
1.25
 73
     0
 74
     0
 77
     1
 78
     8
140
2.5
141
2.5
143
0.03937007874016
147
0.625
171
     3
172
     1
271
     2
272
     2
274
     3
278
    44
283
     0
284
     8
340
11
  0
DIMSTYLE
105
C2
330
A
100
AcDbSymbolTableRecord
100
AcDbDimStyleTableRecord
  2
JIS
 70
     0
 41
2.5
 42
1.0
 43
7.0
 44
1.0
 73
     0
 74
     0
 77
     1
 78
     8
140
2.5
141
0.0
143
0.0394
147
0.0
172
     1
174
     1
175
     1
340
11
  0
DIMSTYLE
105
59D
330
A
100
AcDbSymbolTableRecord
100
AcDbDimStyleTableRecord
  2
ｺﾋﾟｰ - ISO-25
 70
     0
 41
2.5
 42
0.625
 43
3.75
 44
1.25
 73
     0
 74
     0
 77
     1
 78
     8
140
2.5
141
2.5
143
0.03937007874016
147
0.625
171
     3
172
     1
271
     2
272
     2
274
     3
283
     0
284
     8
340
11
343
567
  0
ENDTAB
  0
TABLE
  2
BLOCK_RECORD
  5
1
330
0
100
AcDbSymbolTable
 70
    13
  0
BLOCK_RECORD
  5
1F
330
1
100
AcDbSymbolTableRecord
100
AcDbBlockTableRecord
  2
*Model_Space
340
22
  0
BLOCK_RECORD
  5
1B
330
1
100
AcDbSymbolTableRecord
100
AcDbBlockTableRecord
  2
*Paper_Space
340
1E
  0
BLOCK_RECORD
  5
31
330
1
100
AcDbSymbolTableRecord
100
AcDbBlockTableRecord
  2
JIS A4 title block (landscape)
340
0
310
2800000020000000200000000100080000000000000400000000000000000000000000000000000000000000000080000080000000808000800000008000800080800000C0C0C000C0DCC000F0CAA6000020400000206000002080000020A0000020C0000020E00000400000004020000040400000406000004080000040A0
310
000040C0000040E00000600000006020000060400000606000006080000060A0000060C0000060E00000800000008020000080400000806000008080000080A0000080C0000080E00000A0000000A0200000A0400000A0600000A0800000A0A00000A0C00000A0E00000C0000000C0200000C0400000C0600000C0800000C0
310
A00000C0C00000C0E00000E0000000E0200000E0400000E0600000E0800000E0A00000E0C00000E0E00040000000400020004000400040006000400080004000A0004000C0004000E00040200000402020004020400040206000402080004020A0004020C0004020E000404000004040200040404000404060004040800040
310
40A0004040C0004040E00040600000406020004060400040606000406080004060A0004060C0004060E00040800000408020004080400040806000408080004080A0004080C0004080E00040A0000040A0200040A0400040A0600040A0800040A0A00040A0C00040A0E00040C0000040C0200040C0400040C0600040C08000
310
40C0A00040C0C00040C0E00040E0000040E0200040E0400040E0600040E0800040E0A00040E0C00040E0E00080000000800020008000400080006000800080008000A0008000C0008000E00080200000802020008020400080206000802080008020A0008020C0008020E00080400000804020008040400080406000804080
310
008040A0008040C0008040E00080600000806020008060400080606000806080008060A0008060C0008060E00080800000808020008080400080806000808080008080A0008080C0008080E00080A0000080A0200080A0400080A0600080A0800080A0A00080A0C00080A0E00080C0000080C0200080C0400080C0600080C0
310
800080C0A00080C0C00080C0E00080E0000080E0200080E0400080E0600080E0800080E0A00080E0C00080E0E000C0000000C0002000C0004000C0006000C0008000C000A000C000C000C000E000C0200000C0202000C0204000C0206000C0208000C020A000C020C000C020E000C0400000C0402000C0404000C0406000C0
310
408000C040A000C040C000C040E000C0600000C0602000C0604000C0606000C0608000C060A000C060C000C060E000C0800000C0802000C0804000C0806000C0808000C080A000C080C000C080E000C0A00000C0A02000C0A04000C0A06000C0A08000C0A0A000C0A0C000C0A0E000C0C00000C0C02000C0C04000C0C06000
310
C0C08000C0C0A000F0FBFF00A4A0A000808080000000FF0000FF000000FFFF00FF000000FF00FF00FFFF0000FFFFFF00FFFFFFFFFFFFFFFFFFFFFFFFFFFFFFFFFFFFFFFFFFFFFFFFFFFFFFFFFFFFFFFFFFFFFFFFFFFFFFFFFFFFFFFFFFFFFFFFFFFFFFFFFFFFFFFFFFFFFFFFFFFFFFFFFFFFFFFFFFFFFFFFFFFFFFFFFFFFFF
310
FFFFFFFFFFFFFFFFFFFFFFFFFFFFFFFFFFFFFFFFFFFFFFFFFFFFFFFFFFFFFFFFFFFFFFFFFFFFFFFFFFFFFFFFFFFFFFFFFFFFFFFFFFFFFFFFFFFFFFFFFFFFFFFFFFFFFFFFFFFFFFFFFFFFFFFFFFFFFFFFFFFFFFFFFFFFFFFFFFFFFFFFFFFFFFFFFFFFFFFFFFFFFFFFFFFFFFFFFFFFFFFFFFFF00000000000000000000000000
310
0000FFFF00FFFFFFFFFF00FF0000FFFF00FFFFFFFFFF0000000000000000000000FFFFFFFFFFFFFFFFFFFFFFFFFFFFFFFFFFFFFFFFFF0000000000000000000000FFFFFFFFFFFFFFFFFFFFFFFFFFFFFFFFFFFFFFFF000000000000000000000000FFFFFFFFFFFFFFFFFFFFFFFFFFFF00FFFFFFFFFFFF00FFFFFFFFFFFFFFFF
310
FFFFFFFFFFFFFFFFFFFFFFFFFFFFFFFFFFFFFFFFFFFF0000FFFFFFFFFFFFFFFFFFFFFFFFFFFFFFFFFFFFFFFFFFFFFFFF00FFFFFFFFFFFF00FFFFFFFFFFFFFFFFFFFFFFFFFFFFFFFFFFFFFFFFFFFFFFFF00FFFFFFFFFF0000FFFFFFFFFFFFFFFFFFFFFFFFFFFFFFFFFFFFFFFFFFFFFFFF00FFFFFFFFFFFF00FFFFFFFFFFFFFF
310
FFFFFFFFFFFFFFFFFFFFFFFFFFFFFFFFFF00FFFFFFFFFFFF00FFFFFFFFFFFFFFFFFFFFFFFFFFFFFFFFFFFFFFFFFFFFFFFF00FFFFFF00000000FFFFFFFFFFFFFFFFFFFFFFFFFFFFFFFFFFFFFFFFFFFFFFFF0000FFFFFFFFFF00FFFFFFFFFFFFFFFFFFFFFFFFFFFFFFFFFFFFFFFFFFFFFFFF00FFFFFFFFFF0000FFFFFFFFFFFF
310
FFFFFFFFFFFFFFFFFFFFFFFFFFFFFFFFFFFF00FFFFFFFFFFFF00FFFFFFFFFFFFFFFFFFFFFFFFFFFFFFFFFFFFFFFFFFFFFFFF00FFFFFFFFFF0000FFFFFFFFFFFFFFFFFFFFFFFFFFFFFFFFFFFFFFFFFFFFFFFF00FFFFFFFFFFFF00FFFFFFFFFFFFFFFFFFFFFFFFFFFFFFFFFFFFFFFFFFFFFFFF00FFFFFFFFFF0000FFFFFFFFFF
310
FFFFFFFFFFFFFFFFFFFFFFFFFFFFFFFFFFFFFF00FFFFFFFFFFFF00FFFFFFFFFFFFFFFFFFFFFFFFFFFFFFFFFFFFFFFFFFFFFFFF00FFFFFFFFFFFF00FFFFFFFFFFFFFFFFFFFFFFFFFFFFFFFFFFFFFFFFFFFFFFFF00FFFFFF000000000000000000000000000000000000000000000000000000000000FFFFFFFFFFFFFFFFFFFF
310
FFFFFFFFFFFFFFFFFFFFFFFFFFFFFFFFFFFFFFFFFFFFFFFFFFFFFFFFFFFFFFFFFFFFFFFFFFFFFFFFFFFFFFFFFFFFFFFFFFFFFFFFFFFFFFFFFFFFFFFFFFFFFFFFFFFFFFFFFFFFFFFFFFFFFFFFFFFFFFFFFFFFFFFFFFFFFFFFFFFFFFFFFFFFFFFFFFFFFFFFFFFFFFFFFFFFFFFFFFFFFFFFFFFFFFFFFFFFFFFFFFFFFFFFFFFFFF
310
FFFFFFFFFFFFFFFFFFFFFFFFFFFFFFFFFFFFFFFFFFFFFFFFFFFFFFFFFFFFFFFFFFFFFFFFFFFFFFFFFFFFFFFFFFFFFFFFFFFFFFFFFFFFFFFF
1001
ACAD
1000
DesignCenter Data
1002
{
1070
     1
1070
     4
1002
}
  0
BLOCK_RECORD
  5
567
330
1
100
AcDbSymbolTableRecord
100
AcDbBlockTableRecord
  2
_Dot
340
0
  0
BLOCK_RECORD
  5
DDA
330
1
100
AcDbSymbolTableRecord
100
AcDbBlockTableRecord
  2
*D2
340
0
  0
BLOCK_RECORD
  5
DE7
330
1
100
AcDbSymbolTableRecord
100
AcDbBlockTableRecord
  2
*D3
340
0
  0
BLOCK_RECORD
  5
DF3
330
1
100
AcDbSymbolTableRecord
100
AcDbBlockTableRecord
  2
*D4
340
0
  0
BLOCK_RECORD
  5
E01
330
1
100
AcDbSymbolTableRecord
100
AcDbBlockTableRecord
  2
*D5
340
0
  0
BLOCK_RECORD
  5
E0D
330
1
100
AcDbSymbolTableRecord
100
AcDbBlockTableRecord
  2
*D6
340
0
  0
BLOCK_RECORD
  5
EC3
330
1
100
AcDbSymbolTableRecord
100
AcDbBlockTableRecord
  2
*D8
340
0
  0
BLOCK_RECORD
  5
ED1
330
1
100
AcDbSymbolTableRecord
100
AcDbBlockTableRecord
  2
*D9
340
0
  0
BLOCK_RECORD
  5
EDD
330
1
100
AcDbSymbolTableRecord
100
AcDbBlockTableRecord
  2
*D10
340
0
  0
BLOCK_RECORD
  5
EE9
330
1
100
AcDbSymbolTableRecord
100
AcDbBlockTableRecord
  2
*D11
340
0
  0
BLOCK_RECORD
  5
EF7
330
1
100
AcDbSymbolTableRecord
100
AcDbBlockTableRecord
  2
*D12
340
0
  0
ENDTAB
  0
ENDSEC
  0
SECTION
  2
BLOCKS
  0
BLOCK
  5
20
330
1F
100
AcDbEntity
  8
0
100
AcDbBlockBegin
  2
*Model_Space
 70
     0
 10
0.0
 20
0.0
 30
0.0
  3
*Model_Space
  1

  0
ENDBLK
  5
21
330
1F
100
AcDbEntity
  8
0
100
AcDbBlockEnd
  0
BLOCK
  5
1C
330
1B
100
AcDbEntity
 67
     1
  8
0
100
AcDbBlockBegin
  2
*Paper_Space
 70
     0
 10
0.0
 20
0.0
 30
0.0
  3
*Paper_Space
  1

  0
ENDBLK
  5
1D
330
1B
100
AcDbEntity
 67
     1
  8
0
100
AcDbBlockEnd
  0
BLOCK
  5
B0
330
31
100
AcDbEntity
  8
0
100
AcDbBlockBegin
  2
JIS A4 title block (landscape)
 70
     2
 10
0.0
 20
0.0
 30
0.0
  3
JIS A4 title block (landscape)
  1

  4
JIS A4 title block and attributes (landscape)
  0
LINE
  5
32
330
31
100
AcDbEntity
  8
0
100
AcDbLine
 10
287.0
 20
10.0
 30
0.0
 11
25.0
 21
10.0
 31
0.0
  0
LINE
  5
33
330
31
100
AcDbEntity
  8
0
100
AcDbLine
 10
25.0
 20
200.0
 30
0.0
 11
287.0
 21
200.0
 31
0.0
  0
LINE
  5
34
330
31
100
AcDbEntity
  8
0
 62
     0
100
AcDbLine
 10
157.2978723404242
 20
49.00000000000036
 30
0.0
 11
287.0
 21
49.00000000000036
 31
0.0
  0
LINE
  5
35
330
31
100
AcDbEntity
  8
0
 62
     0
100
AcDbLine
 10
157.2978723404242
 20
13.00000000000004
 30
0.0
 11
287.0
 21
13.00000000000004
 31
0.0
  0
LINE
  5
36
330
31
100
AcDbEntity
  8
0
 62
     0
100
AcDbLine
 10
157.2978723404242
 20
37.00000000000024
 30
0.0
 11
287.0
 21
37.00000000000024
 31
0.0
  0
LINE
  5
37
330
31
100
AcDbEntity
  8
0
 62
     0
100
AcDbLine
 10
195.1276595744673
 20
22.00000000000012
 30
0.0
 11
287.0
 21
22.00000000000012
 31
0.0
  0
LINE
  5
38
330
31
100
AcDbEntity
  8
0
 62
     0
100
AcDbLine
 10
157.2978723404242
 20
10.0
 30
0.0
 11
287.0
 21
10.0
 31
0.0
  0
LINE
  5
39
330
31
100
AcDbEntity
  8
0
 62
     0
100
AcDbLine
 10
287.0
 20
49.00000000000036
 30
0.0
 11
157.2978723404242
 21
49.00000000000036
 31
0.0
  0
TEXT
  5
3A
330
31
100
AcDbEntity
  8
0
 62
     0
100
AcDbText
 10
209.2960689314087
 20
10.48329012996929
 30
0.0
 40
1.791674070777747
  1
設計
  7
Roman
 72
     1
 11
211.2071879402383
 21
10.48329012996929
 31
0.0
100
AcDbText
  0
LINE
  5
3C
330
31
100
AcDbEntity
  8
0
 62
     0
100
AcDbLine
 10
157.2978723404242
 20
34.00000000000024
 30
0.0
 11
225.7517730496447
 21
34.00000000000024
 31
0.0
  0
LINE
  5
3D
330
31
100
AcDbEntity
  8
0
 62
     0
100
AcDbLine
 10
157.2978723404242
 20
31.0000000000002
 30
0.0
 11
225.7517730496447
 21
31.0000000000002
 31
0.0
  0
LINE
  5
3E
330
31
100
AcDbEntity
  8
0
 62
     0
100
AcDbLine
 10
157.2978723404242
 20
28.00000000000015
 30
0.0
 11
225.7517730496447
 21
28.00000000000015
 31
0.0
  0
LINE
  5
3F
330
31
100
AcDbEntity
  8
0
 62
     0
100
AcDbLine
 10
195.1276595744673
 20
25.00000000000012
 30
0.0
 11
225.7517730496447
 21
25.00000000000012
 31
0.0
  0
LINE
  5
40
330
31
100
AcDbEntity
  8
0
100
AcDbLine
 10
25.0
 20
10.0
 30
0.0
 11
25.0
 21
200.0
 31
0.0
  0
LINE
  5
41
330
31
100
AcDbEntity
  8
Object
100
AcDbLine
 10
130.0
 20
16.0
 30
0.0
 11
25.0
 21
16.0
 31
0.0
  0
LINE
  5
43
330
31
100
AcDbEntity
  8
Object
100
AcDbLine
 10
130.0
 20
22.0
 30
0.0
 11
25.0
 21
22.0
 31
0.0
  0
LINE
  5
44
330
31
100
AcDbEntity
  8
Object
100
AcDbLine
 10
130.0
 20
28.0
 30
0.0
 11
25.0
 21
28.0
 31
0.0
  0
LINE
  5
45
330
31
100
AcDbEntity
  8
Object
100
AcDbLine
 10
130.0
 20
34.0
 30
0.0
 11
25.0
 21
34.0
 31
0.0
  0
LINE
  5
46
330
31
100
AcDbEntity
  8
Object
100
AcDbLine
 10
130.0
 20
40.0
 30
0.0
 11
25.0
 21
40.0
 31
0.0
  0
TEXT
  5
47
330
31
100
AcDbEntity
  8
0
100
AcDbText
 10
1.0
 20
1.0
 30
0.0
 40
3.0
  1
この図枠はサンプルです。社内の規格やプロッタの出力範囲に合わせて適当に変更してご利用ください。
  7
Roman
100
AcDbText
  0
LINE
  5
48
330
31
100
AcDbEntity
  8
0
100
AcDbLine
 10
25.0
 20
0.0
 30
0.0
 11
0.0
 21
0.0
 31
0.0
  0
LINE
  5
49
330
31
100
AcDbEntity
  8
0
100
AcDbLine
 10
0.0
 20
0.0
 30
0.0
 11
0.0
 21
10.0
 31
0.0
  0
LINE
  5
4A
330
31
100
AcDbEntity
  8
0
100
AcDbLine
 10
68.66666666666668
 20
10.0
 30
0.0
 11
68.66666666666668
 21
5.0
 31
0.0
  0
TEXT
  5
4B
330
31
100
AcDbEntity
  8
0
100
AcDbText
 10
45.61904761904759
 20
6.230338100985607
 30
0.0
 40
3.0
  1
1
  7
Roman
 72
     1
 11
46.83333333333331
 21
6.230338100985607
 31
0.0
100
AcDbText
  0
LINE
  5
4C
330
31
100
AcDbEntity
  8
Object
100
AcDbLine
 10
35.0
 20
10.0
 30
0.0
 11
35.0
 21
40.0
 31
0.0
  0
LINE
  5
4D
330
31
100
AcDbEntity
  8
Object
100
AcDbLine
 10
32.0
 20
29.53589799999999
 30
0.0
 11
30.0
 21
33.0
 31
0.0
  0
LINE
  5
4E
330
31
100
AcDbEntity
  8
Object
100
AcDbLine
 10
28.0
 20
29.53589799999999
 30
0.0
 11
30.0
 21
33.0
 31
0.0
  0
LINE
  5
4F
330
31
100
AcDbEntity
  8
Object
100
AcDbLine
 10
28.0
 20
11.53589799999999
 30
0.0
 11
30.0
 21
15.0
 31
0.0
  0
LINE
  5
50
330
31
100
AcDbEntity
  8
Object
100
AcDbLine
 10
28.0
 20
11.53589799999999
 30
0.0
 11
32.0
 21
11.53589799999999
 31
0.0
  0
LINE
  5
51
330
31
100
AcDbEntity
  8
Object
100
AcDbLine
 10
28.0
 20
17.535898
 30
0.0
 11
32.0
 21
17.535898
 31
0.0
  0
LINE
  5
52
330
31
100
AcDbEntity
  8
Object
100
AcDbLine
 10
28.0
 20
17.535898
 30
0.0
 11
30.0
 21
20.99999999999999
 31
0.0
  0
LINE
  5
53
330
31
100
AcDbEntity
  8
Object
100
AcDbLine
 10
28.0
 20
23.53589799999999
 30
0.0
 11
32.0
 21
23.53589799999999
 31
0.0
  0
LINE
  5
54
330
31
100
AcDbEntity
  8
Object
100
AcDbLine
 10
28.0
 20
23.53589799999999
 30
0.0
 11
30.0
 21
26.99999999999999
 31
0.0
  0
LINE
  5
55
330
31
100
AcDbEntity
  8
Object
100
AcDbLine
 10
28.0
 20
29.53589799999999
 30
0.0
 11
32.0
 21
29.53589799999999
 31
0.0
  0
ATTDEF
  5
56
330
31
100
AcDbEntity
  8
0
 62
     0
100
AcDbText
 10
19.0
 20
10.0
 30
0.0
 40
3.0
  1

 50
90.0
  7
Roman
100
AcDbAttributeDefinition
  3
Author:
  2
USER
 70
     8
  0
LINE
  5
57
330
31
100
AcDbEntity
  8
Object
100
AcDbLine
 10
32.0
 20
17.535898
 30
0.0
 11
30.0
 21
20.99999999999999
 31
0.0
  0
LINE
  5
58
330
31
100
AcDbEntity
  8
Object
100
AcDbLine
 10
32.0
 20
11.53589799999999
 30
0.0
 11
30.0
 21
15.0
 31
0.0
  0
LINE
  5
59
330
31
100
AcDbEntity
  8
Object
100
AcDbLine
 10
39.5
 20
13.0
 30
0.0
 11
40.49999999999999
 21
13.0
 31
0.0
  0
LINE
  5
5A
330
31
100
AcDbEntity
  8
Object
100
AcDbLine
 10
44.5
 20
13.0
 30
0.0
 11
45.49999999999999
 21
13.0
 31
0.0
  0
LINE
  5
5B
330
31
100
AcDbEntity
  8
Object
100
AcDbLine
 10
39.5
 20
19.0
 30
0.0
 11
40.49999999999999
 21
19.0
 31
0.0
  0
LINE
  5
5C
330
31
100
AcDbEntity
  8
Object
100
AcDbLine
 10
44.5
 20
19.0
 30
0.0
 11
45.49999999999999
 21
19.0
 31
0.0
  0
LINE
  5
5D
330
31
100
AcDbEntity
  8
Object
100
AcDbLine
 10
32.0
 20
23.53589799999999
 30
0.0
 11
30.0
 21
26.99999999999999
 31
0.0
  0
LINE
  5
5E
330
31
100
AcDbEntity
  8
Object
100
AcDbLine
 10
39.5
 20
25.0
 30
0.0
 11
40.49999999999999
 21
25.0
 31
0.0
  0
LINE
  5
5F
330
31
100
AcDbEntity
  8
Object
100
AcDbLine
 10
44.5
 20
25.0
 30
0.0
 11
45.49999999999999
 21
25.0
 31
0.0
  0
LINE
  5
60
330
31
100
AcDbEntity
  8
Object
100
AcDbLine
 10
39.5
 20
31.0
 30
0.0
 11
40.49999999999999
 21
31.0
 31
0.0
  0
LINE
  5
61
330
31
100
AcDbEntity
  8
Object
100
AcDbLine
 10
44.5
 20
31.0
 30
0.0
 11
45.49999999999999
 21
31.0
 31
0.0
  0
LINE
  5
62
330
31
100
AcDbEntity
  8
Object
100
AcDbLine
 10
28.0
 20
35.53589799999999
 30
0.0
 11
30.0
 21
39.0
 31
0.0
  0
LINE
  5
63
330
31
100
AcDbEntity
  8
Object
100
AcDbLine
 10
28.0
 20
35.53589799999999
 30
0.0
 11
32.0
 21
35.53589799999999
 31
0.0
  0
TEXT
  5
64
330
31
100
AcDbEntity
  8
0
100
AcDbText
 10
21.37568307432492
 20
33.75
 30
0.0
 40
3.0
  1
D
  7
Roman
 72
     1
 11
22.94711164575349
 21
33.75
 31
0.0
100
AcDbText
  0
LINE
  5
65
330
31
100
AcDbEntity
  8
Object
100
AcDbLine
 10
32.0
 20
35.53589799999999
 30
0.0
 11
30.0
 21
39.0
 31
0.0
  0
LINE
  5
66
330
31
100
AcDbEntity
  8
Object
100
AcDbLine
 10
39.5
 20
37.0
 30
0.0
 11
40.49999999999999
 21
37.0
 31
0.0
  0
LINE
  5
67
330
31
100
AcDbEntity
  8
Object
100
AcDbLine
 10
44.5
 20
37.0
 30
0.0
 11
45.49999999999999
 21
37.0
 31
0.0
  0
LINE
  5
68
330
31
100
AcDbEntity
  8
Object
100
AcDbLine
 10
50.0
 20
10.0
 30
0.0
 11
50.0
 21
40.0
 31
0.0
  0
LINE
  5
69
330
31
100
AcDbEntity
  8
0
100
AcDbLine
 10
25.0
 20
105.0
 30
0.0
 11
0.0
 21
105.0
 31
0.0
  0
ATTDEF
  5
6A
330
31
100
AcDbEntity
  8
0
 62
     0
100
AcDbText
 10
19.0
 20
70.0
 30
0.0
 40
3.0
  1

 50
90.0
  7
Roman
100
AcDbAttributeDefinition
  3
Revision date:
  2
REVDATE
 70
     8
  0
LINE
  5
6B
330
31
100
AcDbEntity
  8
0
100
AcDbLine
 10
25.0
 20
57.5
 30
0.0
 11
20.0
 21
57.5
 31
0.0
  0
TEXT
  5
6C
330
31
100
AcDbEntity
  8
0
100
AcDbText
 10
21.44711164575349
 20
81.25
 30
0.0
 40
3.0
  1
C
  7
Roman
 72
     1
 11
22.94711164575349
 21
81.25
 31
0.0
100
AcDbText
  0
ATTDEF
  5
6D
330
31
100
AcDbEntity
  8
0
 62
     0
100
AcDbText
 10
19.0
 20
118.0
 30
0.0
 40
3.0
  1

 50
90.0
  7
Roman
100
AcDbAttributeDefinition
  3
File name:
  2
FNAME
 70
     8
  0
LINE
  5
6E
330
31
100
AcDbEntity
  8
0
100
AcDbLine
 10
25.0
 20
105.0
 30
0.0
 11
20.0
 21
105.0
 31
0.0
  0
TEXT
  5
6F
330
31
100
AcDbEntity
  8
0
100
AcDbText
 10
21.37568307432492
 20
128.75
 30
0.0
 40
3.0
  1
B
  7
Roman
 72
     1
 11
22.94711164575349
 21
128.75
 31
0.0
100
AcDbText
  0
LINE
  5
70
330
31
100
AcDbEntity
  8
0
100
AcDbLine
 10
112.3333333333333
 20
10.0
 30
0.0
 11
112.3333333333333
 21
5.0
 31
0.0
  0
TEXT
  5
71
330
31
100
AcDbEntity
  8
0
100
AcDbText
 10
89.07142857142856
 20
6.230338100985607
 30
0.0
 40
3.0
  1
2
  7
Roman
 72
     1
 11
90.5
 21
6.230338100985607
 31
0.0
100
AcDbText
  0
TEXT
  5
72
330
31
100
AcDbEntity
  8
0
100
AcDbText
 10
132.7380952380952
 20
6.230338100985607
 30
0.0
 40
3.0
  1
3
  7
Roman
 72
     1
 11
134.1666666666666
 21
6.230338100985607
 31
0.0
100
AcDbText
  0
LINE
  5
73
330
31
100
AcDbEntity
  8
Object
100
AcDbLine
 10
80.0
 20
10.0
 30
0.0
 11
80.0
 21
40.0
 31
0.0
  0
LINE
  5
74
330
31
100
AcDbEntity
  8
Object
100
AcDbLine
 10
120.0
 20
10.0
 30
0.0
 11
120.0
 21
40.0
 31
0.0
  0
LINE
  5
75
330
31
100
AcDbEntity
  8
Object
100
AcDbLine
 10
130.0
 20
40.0
 30
0.0
 11
130.0
 21
10.0
 31
0.0
  0
LINE
  5
76
330
31
100
AcDbEntity
  8
0
100
AcDbLine
 10
156.0
 20
10.0
 30
0.0
 11
156.0
 21
0.0
 31
0.0
  0
LINE
  5
77
330
31
100
AcDbEntity
  8
0
100
AcDbLine
 10
156.0
 20
10.0
 30
0.0
 11
156.0
 21
5.0
 31
0.0
  0
LINE
  5
78
330
31
100
AcDbEntity
  8
0
100
AcDbLine
 10
199.6666666666666
 20
10.0
 30
0.0
 11
199.6666666666666
 21
5.0
 31
0.0
  0
TEXT
  5
79
330
31
100
AcDbEntity
  8
0
100
AcDbText
 10
176.3333333333333
 20
6.230338100985607
 30
0.0
 40
3.0
  1
4
  7
Roman
 72
     1
 11
177.8333333333333
 21
6.230338100985607
 31
0.0
100
AcDbText
  0
LINE
  5
7A
330
31
100
AcDbEntity
  8
0
 62
     0
100
AcDbLine
 10
157.2978723404242
 20
16.00000000000008
 30
0.0
 11
195.1276595744673
 21
16.00000000000008
 31
0.0
  0
LINE
  5
7B
330
31
100
AcDbEntity
  8
0
 62
     0
100
AcDbLine
 10
157.2978723404242
 20
25.00000000000012
 30
0.0
 11
195.1276595744673
 21
25.00000000000012
 31
0.0
  0
LINE
  5
7C
330
31
100
AcDbEntity
  8
0
 62
     0
100
AcDbLine
 10
157.2978723404242
 20
22.00000000000007
 30
0.0
 11
195.1276595744673
 21
22.00000000000012
 31
0.0
  0
LINE
  5
7D
330
31
100
AcDbEntity
  8
0
 62
     0
100
AcDbLine
 10
157.2978723404242
 20
19.00000000000007
 30
0.0
 11
195.1276595744673
 21
19.00000000000012
 31
0.0
  0
LINE
  5
7E
330
31
100
AcDbEntity
  8
0
 62
     0
100
AcDbLine
 10
162.702127659573
 20
37.00000000000024
 30
0.0
 11
162.702127659573
 21
10.0
 31
0.0
  0
LINE
  5
7F
330
31
100
AcDbEntity
  8
0
 62
     0
100
AcDbLine
 10
157.2978723404242
 20
49.00000000000036
 30
0.0
 11
157.2978723404242
 21
10.0
 31
0.0
  0
LINE
  5
80
330
31
100
AcDbEntity
  8
0
 62
     0
100
AcDbLine
 10
157.2978723404242
 20
10.0
 30
0.0
 11
157.2978723404242
 21
13.00000000000004
 31
0.0
  0
LINE
  5
81
330
31
100
AcDbEntity
  8
0
 62
     0
100
AcDbLine
 10
180.7163120567365
 20
37.00000000000024
 30
0.0
 11
180.7163120567365
 21
10.0
 31
0.0
  0
LINE
  5
82
330
31
100
AcDbEntity
  8
0
 62
     0
100
AcDbLine
 10
189.7234042553184
 20
37.00000000000024
 30
0.0
 11
189.7234042553184
 21
10.0
 31
0.0
  0
LINE
  5
83
330
31
100
AcDbEntity
  8
0
 62
     0
100
AcDbLine
 10
195.1276595744673
 20
49.00000000000036
 30
0.0
 11
195.1276595744673
 21
25.00000000000012
 31
0.0
  0
LINE
  5
84
330
31
100
AcDbEntity
  8
0
 62
     0
100
AcDbLine
 10
202.3333333333325
 20
37.00000000000024
 30
0.0
 11
202.3333333333325
 21
25.00000000000012
 31
0.0
  0
LINE
  5
85
330
31
100
AcDbEntity
  8
0
 62
     0
100
AcDbLine
 10
195.1276595744673
 20
25.00000000000012
 30
0.0
 11
195.1276595744673
 21
10.0
 31
0.0
  0
LINE
  5
86
330
31
100
AcDbEntity
  8
0
 62
     0
100
AcDbLine
 10
205.7659574468077
 20
22.00000000000007
 30
0.0
 11
205.7659574468077
 21
10.0
 31
0.0
  0
TEXT
  5
87
330
31
100
AcDbEntity
  8
0
 62
     0
100
AcDbText
 10
198.7174935280942
 20
10.48329012996929
 30
0.0
 40
1.791674070777747
  1
製図
  7
Roman
 72
     1
 11
200.5688900678978
 21
10.48329012996929
 31
0.0
100
AcDbText
  0
LINE
  5
88
330
31
100
AcDbEntity
  8
0
100
AcDbLine
 10
0.0
 20
210.0
 30
0.0
 11
25.0
 21
210.0
 31
0.0
  0
LINE
  5
89
330
31
100
AcDbEntity
  8
0
100
AcDbLine
 10
0.0
 20
200.0
 30
0.0
 11
0.0
 21
210.0
 31
0.0
  0
LINE
  5
8A
330
31
100
AcDbEntity
  8
0
100
AcDbLine
 10
25.0
 20
152.5
 30
0.0
 11
20.0
 21
152.5
 31
0.0
  0
TEXT
  5
8B
330
31
100
AcDbEntity
  8
0
100
AcDbText
 10
21.66139736003921
 20
176.25
 30
0.0
 40
3.0
  1
A
  7
Roman
 72
     1
 11
22.94711164575349
 21
176.25
 31
0.0
100
AcDbText
  0
TEXT
  5
8C
330
31
100
AcDbEntity
  8
0
100
AcDbText
 10
45.61904761904761
 20
201.0
 30
0.0
 40
3.0
  1
1
  7
Roman
 72
     1
 11
46.83333333333332
 21
201.0
 31
0.0
100
AcDbText
  0
LINE
  5
8D
330
31
100
AcDbEntity
  8
0
100
AcDbLine
 10
68.66666666666666
 20
200.0
 30
0.0
 11
68.66666666666666
 21
205.0
 31
0.0
  0
TEXT
  5
8E
330
31
100
AcDbEntity
  8
0
100
AcDbText
 10
89.07142857142856
 20
201.0
 30
0.0
 40
3.0
  1
2
  7
Roman
 72
     1
 11
90.5
 21
201.0
 31
0.0
100
AcDbText
  0
LINE
  5
8F
330
31
100
AcDbEntity
  8
0
100
AcDbLine
 10
112.3333333333333
 20
200.0
 30
0.0
 11
112.3333333333333
 21
205.0
 31
0.0
  0
TEXT
  5
90
330
31
100
AcDbEntity
  8
0
100
AcDbText
 10
132.7380952380952
 20
201.0
 30
0.0
 40
3.0
  1
3
  7
Roman
 72
     1
 11
134.1666666666666
 21
201.0
 31
0.0
100
AcDbText
  0
TEXT
  5
91
330
31
100
AcDbEntity
  8
0
100
AcDbText
 10
176.3333333333333
 20
201.0
 30
0.0
 40
3.0
  1
4
  7
Roman
 72
     1
 11
177.8333333333333
 21
201.0
 31
0.0
100
AcDbText
  0
LINE
  5
92
330
31
100
AcDbEntity
  8
0
100
AcDbLine
 10
156.0
 20
200.0
 30
0.0
 11
156.0
 21
210.0
 31
0.0
  0
LINE
  5
93
330
31
100
AcDbEntity
  8
0
100
AcDbLine
 10
156.0
 20
200.0
 30
0.0
 11
156.0
 21
205.0
 31
0.0
  0
LINE
  5
94
330
31
100
AcDbEntity
  8
0
100
AcDbLine
 10
199.6666666666666
 20
200.0
 30
0.0
 11
199.6666666666666
 21
205.0
 31
0.0
  0
LINE
  5
95
330
31
100
AcDbEntity
  8
0
100
AcDbLine
 10
287.0
 20
200.0
 30
0.0
 11
287.0
 21
10.0
 31
0.0
  0
LINE
  5
96
330
31
100
AcDbEntity
  8
0
100
AcDbLine
 10
243.3333333333333
 20
10.0
 30
0.0
 11
243.3333333333333
 21
5.0
 31
0.0
  0
TEXT
  5
97
330
31
100
AcDbEntity
  8
0
100
AcDbText
 10
220.0714285714286
 20
6.230338100985607
 30
0.0
 40
3.0
  1
5
  7
Roman
 72
     1
 11
221.4999999999999
 21
6.230338100985607
 31
0.0
100
AcDbText
  0
TEXT
  5
98
330
31
100
AcDbEntity
  8
0
100
AcDbText
 10
263.6666666666666
 20
6.230338100985607
 30
0.0
 40
3.0
  1
6
  7
Roman
 72
     1
 11
265.1666666666666
 21
6.230338100985607
 31
0.0
100
AcDbText
  0
LINE
  5
99
330
31
100
AcDbEntity
  8
0
 62
     0
100
AcDbLine
 10
225.7517730496447
 20
49.00000000000036
 30
0.0
 11
225.7517730496447
 21
10.0
 31
0.0
  0
LINE
  5
9A
330
31
100
AcDbEntity
  8
0
 62
     0
100
AcDbLine
 10
213.1418439716305
 20
49.00000000000036
 30
0.0
 11
213.1418439716305
 21
22.00000000000012
 31
0.0
  0
LINE
  5
9B
330
31
100
AcDbEntity
  8
0
 62
     0
100
AcDbLine
 10
216.4042553191484
 20
22.00000000000007
 30
0.0
 11
216.4042553191484
 21
10.0
 31
0.0
  0
TEXT
  5
9C
330
31
100
AcDbEntity
  8
0
 62
     0
100
AcDbText
 10
219.2447163844405
 20
10.55220101068186
 30
0.0
 40
1.791674070777747
  1
照査
  7
Roman
 72
     1
 11
221.1558353932701
 21
10.55220101068186
 31
0.0
100
AcDbText
  0
LINE
  5
9D
330
31
100
AcDbEntity
  8
0
100
AcDbLine
 10
297.0
 20
10.0
 30
0.0
 11
297.0
 21
0.0
 31
0.0
  0
LINE
  5
9E
330
31
100
AcDbEntity
  8
0
100
AcDbLine
 10
297.0
 20
0.0
 30
0.0
 11
287.0
 21
0.0
 31
0.0
  0
LINE
  5
9F
330
31
100
AcDbEntity
  8
0
 62
     0
100
AcDbLine
 10
287.0
 20
49.00000000000036
 30
0.0
 11
287.0
 21
10.0
 31
0.0
  0
LINE
  5
A0
330
31
100
AcDbEntity
  8
0
 62
     0
100
AcDbLine
 10
287.0
 20
10.0
 30
0.0
 11
287.0
 21
49.00000000000036
 31
0.0
  0
LINE
  5
A1
330
31
100
AcDbEntity
  8
0
 62
     0
100
AcDbLine
 10
279.7943262411347
 20
22.00000000000012
 30
0.0
 11
279.7943262411347
 21
10.0
 31
0.0
  0
LINE
  5
A2
330
31
100
AcDbEntity
  8
0
 62
     0
100
AcDbLine
 10
279.7943262411347
 20
16.00000000000008
 30
0.0
 11
287.0
 21
16.00000000000008
 31
0.0
  0
TEXT
  5
A3
330
31
100
AcDbEntity
  8
0
100
AcDbText
 10
287.6673438822666
 20
33.75
 30
0.0
 40
3.0
  1
D
  7
Roman
 72
     1
 11
289.2387724536952
 21
33.75
 31
0.0
100
AcDbText
  0
LINE
  5
A4
330
31
100
AcDbEntity
  8
0
100
AcDbLine
 10
287.0
 20
57.5
 30
0.0
 11
292.0
 21
57.5
 31
0.0
  0
TEXT
  5
A5
330
31
100
AcDbEntity
  8
0
100
AcDbText
 10
287.7387724536952
 20
81.25
 30
0.0
 40
3.0
  1
C
  7
Roman
 72
     1
 11
289.2387724536952
 21
81.25
 31
0.0
100
AcDbText
  0
LINE
  5
A6
330
31
100
AcDbEntity
  8
0
100
AcDbLine
 10
287.0
 20
105.0
 30
0.0
 11
297.0
 21
105.0
 31
0.0
  0
LINE
  5
A7
330
31
100
AcDbEntity
  8
0
100
AcDbLine
 10
287.0
 20
105.0
 30
0.0
 11
292.0
 21
105.0
 31
0.0
  0
TEXT
  5
A8
330
31
100
AcDbEntity
  8
0
100
AcDbText
 10
287.6673438822666
 20
128.75
 30
0.0
 40
3.0
  1
B
  7
Roman
 72
     1
 11
289.2387724536952
 21
128.75
 31
0.0
100
AcDbText
  0
TEXT
  5
A9
330
31
100
AcDbEntity
  8
0
100
AcDbText
 10
220.0714285714286
 20
201.0
 30
0.0
 40
3.0
  1
5
  7
Roman
 72
     1
 11
221.4999999999999
 21
201.0
 31
0.0
100
AcDbText
  0
LINE
  5
AA
330
31
100
AcDbEntity
  8
0
100
AcDbLine
 10
243.3333333333333
 20
200.0
 30
0.0
 11
243.3333333333333
 21
205.0
 31
0.0
  0
TEXT
  5
AB
330
31
100
AcDbEntity
  8
0
100
AcDbText
 10
263.6666666666666
 20
201.0
 30
0.0
 40
3.0
  1
6
  7
Roman
 72
     1
 11
265.1666666666666
 21
201.0
 31
0.0
100
AcDbText
  0
LINE
  5
AC
330
31
100
AcDbEntity
  8
0
100
AcDbLine
 10
287.0
 20
152.5
 30
0.0
 11
292.0
 21
152.5
 31
0.0
  0
TEXT
  5
AD
330
31
100
AcDbEntity
  8
0
100
AcDbText
 10
287.9530581679809
 20
176.25
 30
0.0
 40
3.0
  1
A
  7
Roman
 72
     1
 11
289.2387724536952
 21
176.25
 31
0.0
100
AcDbText
  0
LINE
  5
AE
330
31
100
AcDbEntity
  8
0
100
AcDbLine
 10
287.0
 20
210.0
 30
0.0
 11
297.0
 21
210.0
 31
0.0
  0
LINE
  5
AF
330
31
100
AcDbEntity
  8
0
100
AcDbLine
 10
297.0
 20
210.0
 30
0.0
 11
297.0
 21
200.0
 31
0.0
  0
ENDBLK
  5
B1
330
31
100
AcDbEntity
  8
0
100
AcDbBlockEnd
  0
BLOCK
  5
56A
330
567
100
AcDbEntity
  8
0
100
AcDbBlockBegin
  2
_Dot
 70
     0
 10
0.0
 20
0.0
 30
0.0
  3
_Dot
  1

  0
LWPOLYLINE
  5
568
330
567
100
AcDbEntity
  8
0
 62
     0
100
AcDbPolyline
 90
        2
 70
     1
 43
0.5
 10
-0.25
 20
0.0
 42
1.0
 10
0.25
 20
0.0
 42
1.0
  0
LINE
  5
569
330
567
100
AcDbEntity
  8
0
 62
     0
370
    -2
100
AcDbLine
 10
-0.5
 20
0.0
 30
0.0
 11
-1.0
 21
0.0
 31
0.0
  0
ENDBLK
  5
56B
330
567
100
AcDbEntity
  8
0
100
AcDbBlockEnd
  0
BLOCK
  5
DE5
330
DDA
100
AcDbEntity
  8
0
 48
0.3
100
AcDbBlockBegin
  2
*D2
 70
     1
 10
0.0
 20
0.0
 30
0.0
  3
*D2
  1

  0
LINE
  5
DDB
330
DDA
100
AcDbEntity
  8
0
 62
     0
 48
0.3
370
    -2
100
AcDbLine
 10
85.72317384133397
 20
184.5476548099859
 30
0.0
 11
85.72317384133397
 21
193.518292453756
 31
0.0
  0
LINE
  5
DDC
330
DDA
100
AcDbEntity
  8
0
 62
     0
 48
0.3
370
    -2
100
AcDbLine
 10
79.22317384133397
 20
184.5476548099859
 30
0.0
 11
79.22317384133397
 21
193.518292453756
 31
0.0
  0
LINE
  5
DDD
330
DDA
100
AcDbEntity
  8
0
 62
     0
 48
0.3
370
    -2
100
AcDbLine
 10
83.22317384133397
 20
192.2682924537561
 30
0.0
 11
81.72317384133398
 21
192.2682924537561
 31
0.0
  0
LINE
  5
DDE
330
DDA
100
AcDbEntity
  8
0
 62
     0
 48
0.3
370
    -2
100
AcDbLine
 10
79.22317384133397
 20
192.2682924537561
 30
0.0
 11
67.97317384133397
 21
192.2682924537561
 31
0.0
  0
SOLID
  5
DDF
330
DDA
100
AcDbEntity
  8
0
 62
     0
 48
0.3
100
AcDbTrace
 10
83.22317384133397
 20
192.6849591204227
 30
0.0
 11
83.22317384133397
 21
191.8516257870894
 31
0.0
 12
85.72317384133397
 22
192.2682924537561
 32
0.0
 13
85.72317384133397
 23
192.2682924537561
 33
0.0
  0
SOLID
  5
DE0
330
DDA
100
AcDbEntity
  8
0
 62
     0
 48
0.3
100
AcDbTrace
 10
81.72317384133398
 20
192.6849591204227
 30
0.0
 11
81.72317384133398
 21
191.8516257870894
 31
0.0
 12
79.22317384133397
 22
192.2682924537561
 32
0.0
 13
79.22317384133397
 23
192.2682924537561
 33
0.0
  0
MTEXT
  5
DE1
330
DDA
100
AcDbEntity
  8
0
 62
     0
 48
0.3
100
AcDbMText
 10
72.34817384133397
 20
194.1432924537561
 30
0.0
 40
2.5
 41
0.0
 71
     5
 72
     1
  1
%%c6.5
 73
     1
 44
1.0
  0
POINT
  5
DE2
330
DDA
100
AcDbEntity
  8
Defpoints
 62
     0
 48
0.3
100
AcDbPoint
 10
85.72317384133397
 20
183.9226548099859
 30
0.0
  0
POINT
  5
DE3
330
DDA
100
AcDbEntity
  8
Defpoints
 62
     0
 48
0.3
100
AcDbPoint
 10
79.22317384133397
 20
183.9226548099859
 30
0.0
  0
POINT
  5
DE4
330
DDA
100
AcDbEntity
  8
Defpoints
 62
     0
 48
0.3
100
AcDbPoint
 10
79.22317384133397
 20
192.2682924537561
 30
0.0
  0
ENDBLK
  5
DE6
330
DDA
100
AcDbEntity
  8
0
 48
0.3
100
AcDbBlockEnd
  0
BLOCK
  5
DF1
330
DE7
100
AcDbEntity
  8
0
 48
0.3
100
AcDbBlockBegin
  2
*D3
 70
     1
 10
0.0
 20
0.0
 30
0.0
  3
*D3
  1

  0
LINE
  5
DE8
330
DE7
100
AcDbEntity
  8
0
 62
     0
 48
0.3
370
    -2
100
AcDbLine
 10
83.84817384133397
 20
173.3726548099859
 30
0.0
 11
95.06881950616197
 21
173.3726548099859
 31
0.0
  0
LINE
  5
DE9
330
DE7
100
AcDbEntity
  8
0
 62
     0
 48
0.3
370
    -2
100
AcDbLine
 10
83.84817384133397
 20
162.3726548099859
 30
0.0
 11
95.06881950616197
 21
162.3726548099859
 31
0.0
  0
LINE
  5
DEA
330
DE7
100
AcDbEntity
  8
0
 62
     0
 48
0.3
370
    -2
100
AcDbLine
 10
93.81881950616197
 20
170.8726548099859
 30
0.0
 11
93.81881950616197
 21
164.8726548099859
 31
0.0
  0
SOLID
  5
DEB
330
DE7
100
AcDbEntity
  8
0
 62
     0
 48
0.3
100
AcDbTrace
 10
93.40215283949531
 20
170.8726548099859
 30
0.0
 11
94.23548617282865
 21
170.8726548099859
 31
0.0
 12
93.81881950616197
 22
173.3726548099859
 32
0.0
 13
93.81881950616197
 23
173.3726548099859
 33
0.0
  0
SOLID
  5
DEC
330
DE7
100
AcDbEntity
  8
0
 62
     0
 48
0.3
100
AcDbTrace
 10
93.40215283949531
 20
164.8726548099859
 30
0.0
 11
94.23548617282865
 21
164.8726548099859
 31
0.0
 12
93.81881950616197
 22
162.3726548099859
 32
0.0
 13
93.81881950616197
 23
162.3726548099859
 33
0.0
  0
MTEXT
  5
DED
330
DE7
100
AcDbEntity
  8
0
 62
     0
 48
0.3
100
AcDbMText
 10
91.94381950616195
 20
167.8726548099859
 30
0.0
 40
2.5
 41
0.0
 71
     5
 72
     1
  1
11
 11
0.0000000000000001
 21
1.0
 31
0.0
 73
     1
 44
1.0
  0
POINT
  5
DEE
330
DE7
100
AcDbEntity
  8
Defpoints
 62
     0
 48
0.3
100
AcDbPoint
 10
83.22317384133397
 20
173.3726548099859
 30
0.0
  0
POINT
  5
DEF
330
DE7
100
AcDbEntity
  8
Defpoints
 62
     0
 48
0.3
100
AcDbPoint
 10
83.22317384133397
 20
162.3726548099859
 30
0.0
  0
POINT
  5
DF0
330
DE7
100
AcDbEntity
  8
Defpoints
 62
     0
 48
0.3
100
AcDbPoint
 10
93.81881950616197
 20
162.3726548099859
 30
0.0
  0
ENDBLK
  5
DF2
330
DE7
100
AcDbEntity
  8
0
 48
0.3
100
AcDbBlockEnd
  0
BLOCK
  5
DFF
330
DF3
100
AcDbEntity
  8
0
 48
0.3
100
AcDbBlockBegin
  2
*D4
 70
     1
 10
0.0
 20
0.0
 30
0.0
  3
*D4
  1

  0
LINE
  5
DF4
330
DF3
100
AcDbEntity
  8
0
 62
     0
 48
0.3
370
    -2
100
AcDbLine
 10
83.97317384133396
 20
167.2476548099859
 30
0.0
 11
83.97317384133396
 21
165.6192974033567
 31
0.0
  0
LINE
  5
DF5
330
DF3
100
AcDbEntity
  8
0
 62
     0
 48
0.3
370
    -2
100
AcDbLine
 10
80.97317384133395
 20
167.2476548099859
 30
0.0
 11
80.97317384133395
 21
165.6192974033567
 31
0.0
  0
LINE
  5
DF6
330
DF3
100
AcDbEntity
  8
0
 62
     0
 48
0.3
370
    -2
100
AcDbLine
 10
86.47317384133396
 20
166.8692974033567
 30
0.0
 11
88.97317384133396
 21
166.8692974033567
 31
0.0
  0
LINE
  5
DF7
330
DF3
100
AcDbEntity
  8
0
 62
     0
 48
0.3
370
    -2
100
AcDbLine
 10
78.47317384133396
 20
166.8692974033567
 30
0.0
 11
70.55650717466729
 21
166.8692974033567
 31
0.0
  0
LINE
  5
DF8
330
DF3
100
AcDbEntity
  8
0
 62
     0
 48
0.3
370
    -2
100
AcDbLine
 10
83.97317384133396
 20
166.8692974033567
 30
0.0
 11
80.97317384133395
 21
166.8692974033567
 31
0.0
  0
SOLID
  5
DF9
330
DF3
100
AcDbEntity
  8
0
 62
     0
 48
0.3
100
AcDbTrace
 10
86.47317384133396
 20
167.2859640700234
 30
0.0
 11
86.47317384133396
 21
166.4526307366901
 31
0.0
 12
83.97317384133396
 22
166.8692974033567
 32
0.0
 13
83.97317384133396
 23
166.8692974033567
 33
0.0
  0
SOLID
  5
DFA
330
DF3
100
AcDbEntity
  8
0
 62
     0
 48
0.3
100
AcDbTrace
 10
78.47317384133396
 20
167.2859640700234
 30
0.0
 11
78.47317384133396
 21
166.4526307366901
 31
0.0
 12
80.97317384133395
 22
166.8692974033567
 32
0.0
 13
80.97317384133395
 23
166.8692974033567
 33
0.0
  0
MTEXT
  5
DFB
330
DF3
100
AcDbEntity
  8
0
 62
     0
 48
0.3
100
AcDbMText
 10
73.26484050800063
 20
168.7442974033567
 30
0.0
 40
2.5
 41
0.0
 71
     5
 72
     1
  1
%%c3
 73
     1
 44
1.0
  0
POINT
  5
DFC
330
DF3
100
AcDbEntity
  8
Defpoints
 62
     0
 48
0.3
100
AcDbPoint
 10
83.97317384133396
 20
167.8726548099859
 30
0.0
  0
POINT
  5
DFD
330
DF3
100
AcDbEntity
  8
Defpoints
 62
     0
 48
0.3
100
AcDbPoint
 10
80.97317384133395
 20
167.8726548099859
 30
0.0
  0
POINT
  5
DFE
330
DF3
100
AcDbEntity
  8
Defpoints
 62
     0
 48
0.3
100
AcDbPoint
 10
80.97317384133395
 20
166.8692974033567
 30
0.0
  0
ENDBLK
  5
E00
330
DF3
100
AcDbEntity
  8
0
 48
0.3
100
AcDbBlockEnd
  0
BLOCK
  5
E0B
330
E01
100
AcDbEntity
  8
0
 48
0.3
100
AcDbBlockBegin
  2
*D5
 70
     1
 10
0.0
 20
0.0
 30
0.0
  3
*D5
  1

  0
LINE
  5
E02
330
E01
100
AcDbEntity
  8
0
 62
     0
 48
0.3
370
    -2
100
AcDbLine
 10
83.84758459534442
 20
25.30573747525522
 30
0.0
 11
94.76236433174554
 21
25.30573747525522
 31
0.0
  0
LINE
  5
E03
330
E01
100
AcDbEntity
  8
0
 62
     0
 48
0.3
370
    -2
100
AcDbLine
 10
83.84758459534442
 20
17.30573747525522
 30
0.0
 11
94.76236433174554
 21
17.30573747525522
 31
0.0
  0
LINE
  5
E04
330
E01
100
AcDbEntity
  8
0
 62
     0
 48
0.3
370
    -2
100
AcDbLine
 10
93.51236433174554
 20
22.80573747525522
 30
0.0
 11
93.51236433174554
 21
19.80573747525522
 31
0.0
  0
SOLID
  5
E05
330
E01
100
AcDbEntity
  8
0
 62
     0
 48
0.3
100
AcDbTrace
 10
93.09569766507886
 20
22.80573747525522
 30
0.0
 11
93.9290309984122
 21
22.80573747525522
 31
0.0
 12
93.51236433174554
 22
25.30573747525522
 32
0.0
 13
93.51236433174554
 23
25.30573747525522
 33
0.0
  0
SOLID
  5
E06
330
E01
100
AcDbEntity
  8
0
 62
     0
 48
0.3
100
AcDbTrace
 10
93.09569766507886
 20
19.80573747525522
 30
0.0
 11
93.9290309984122
 21
19.80573747525522
 31
0.0
 12
93.51236433174554
 22
17.30573747525522
 32
0.0
 13
93.51236433174554
 23
17.30573747525522
 33
0.0
  0
MTEXT
  5
E07
330
E01
100
AcDbEntity
  8
0
 62
     0
 48
0.3
100
AcDbMText
 10
91.63736433174554
 20
21.30573747525523
 30
0.0
 40
2.5
 41
0.0
 71
     5
 72
     1
  1
8
 11
0.0000000000000001
 21
1.0
 31
0.0
 73
     1
 44
1.0
  0
POINT
  5
E08
330
E01
100
AcDbEntity
  8
Defpoints
 62
     0
 48
0.3
100
AcDbPoint
 10
83.22258459534442
 20
25.30573747525522
 30
0.0
  0
POINT
  5
E09
330
E01
100
AcDbEntity
  8
Defpoints
 62
     0
 48
0.3
100
AcDbPoint
 10
83.22258459534442
 20
17.30573747525522
 30
0.0
  0
POINT
  5
E0A
330
E01
100
AcDbEntity
  8
Defpoints
 62
     0
 48
0.3
100
AcDbPoint
 10
93.51236433174554
 20
17.30573747525522
 30
0.0
  0
ENDBLK
  5
E0C
330
E01
100
AcDbEntity
  8
0
 48
0.3
100
AcDbBlockEnd
  0
BLOCK
  5
E19
330
E0D
100
AcDbEntity
  8
0
 48
0.3
100
AcDbBlockBegin
  2
*D6
 70
     1
 10
0.0
 20
0.0
 30
0.0
  3
*D6
  1

  0
LINE
  5
E0E
330
E0D
100
AcDbEntity
  8
0
 62
     0
 48
0.3
370
    -2
100
AcDbLine
 10
83.22258459534442
 20
20.68073747525522
 30
0.0
 11
83.22258459534442
 21
18.61292451071972
 31
0.0
  0
LINE
  5
E0F
330
E0D
100
AcDbEntity
  8
0
 62
     0
 48
0.3
370
    -2
100
AcDbLine
 10
80.72258459534442
 20
20.68073747525522
 30
0.0
 11
80.72258459534442
 21
18.61292451071972
 31
0.0
  0
LINE
  5
E10
330
E0D
100
AcDbEntity
  8
0
 62
     0
 48
0.3
370
    -2
100
AcDbLine
 10
85.72258459534442
 20
19.86292451071972
 30
0.0
 11
88.22258459534442
 21
19.86292451071972
 31
0.0
  0
LINE
  5
E11
330
E0D
100
AcDbEntity
  8
0
 62
     0
 48
0.3
370
    -2
100
AcDbLine
 10
78.22258459534442
 20
19.86292451071972
 30
0.0
 11
66.97258459534442
 21
19.86292451071972
 31
0.0
  0
LINE
  5
E12
330
E0D
100
AcDbEntity
  8
0
 62
     0
 48
0.3
370
    -2
100
AcDbLine
 10
83.22258459534442
 20
19.86292451071972
 30
0.0
 11
80.72258459534442
 21
19.86292451071972
 31
0.0
  0
SOLID
  5
E13
330
E0D
100
AcDbEntity
  8
0
 62
     0
 48
0.3
100
AcDbTrace
 10
85.72258459534442
 20
20.27959117738638
 30
0.0
 11
85.72258459534442
 21
19.44625784405305
 31
0.0
 12
83.22258459534442
 22
19.86292451071972
 32
0.0
 13
83.22258459534442
 23
19.86292451071972
 33
0.0
  0
SOLID
  5
E14
330
E0D
100
AcDbEntity
  8
0
 62
     0
 48
0.3
100
AcDbTrace
 10
78.22258459534442
 20
20.27959117738638
 30
0.0
 11
78.22258459534442
 21
19.44625784405305
 31
0.0
 12
80.72258459534442
 22
19.86292451071972
 32
0.0
 13
80.72258459534442
 23
19.86292451071972
 33
0.0
  0
MTEXT
  5
E15
330
E0D
100
AcDbEntity
  8
0
 62
     0
 48
0.3
100
AcDbMText
 10
71.34758459534442
 20
21.73792451071972
 30
0.0
 40
2.5
 41
0.0
 71
     5
 72
     1
  1
%%c2.5
 73
     1
 44
1.0
  0
POINT
  5
E16
330
E0D
100
AcDbEntity
  8
Defpoints
 62
     0
 48
0.3
100
AcDbPoint
 10
83.22258459534442
 20
21.30573747525522
 30
0.0
  0
POINT
  5
E17
330
E0D
100
AcDbEntity
  8
Defpoints
 62
     0
 48
0.3
100
AcDbPoint
 10
80.72258459534442
 20
21.30573747525522
 30
0.0
  0
POINT
  5
E18
330
E0D
100
AcDbEntity
  8
Defpoints
 62
     0
 48
0.3
100
AcDbPoint
 10
80.72258459534442
 20
19.86292451071972
 30
0.0
  0
ENDBLK
  5
E1A
330
E0D
100
AcDbEntity
  8
0
 48
0.3
100
AcDbBlockEnd
  0
BLOCK
  5
ECF
330
EC3
100
AcDbEntity
  8
0
 62
     0
 48
0.3
100
AcDbBlockBegin
  2
*D8
 70
     1
 10
0.0
 20
0.0
 30
0.0
  3
*D8
  1

  0
LINE
  5
F71
330
EC3
100
AcDbEntity
  8
0
 62
     0
 48
0.3
370
    -2
100
AcDbLine
 10
341.279056773624
 20
8.709890043637415
 30
0.0
 11
341.279056773624
 21
6.642077079101909
 31
0.0
  0
LINE
  5
F72
330
EC3
100
AcDbEntity
  8
0
 62
     0
 48
0.3
370
    -2
100
AcDbLine
 10
338.779056773624
 20
8.709890043637415
 30
0.0
 11
338.779056773624
 21
6.642077079101909
 31
0.0
  0
LINE
  5
F73
330
EC3
100
AcDbEntity
  8
0
 62
     0
 48
0.3
370
    -2
100
AcDbLine
 10
343.7790567736239
 20
7.892077079101909
 30
0.0
 11
346.279056773624
 21
7.892077079101909
 31
0.0
  0
LINE
  5
F74
330
EC3
100
AcDbEntity
  8
0
 62
     0
 48
0.3
370
    -2
100
AcDbLine
 10
336.279056773624
 20
7.892077079101909
 30
0.0
 11
325.0290567736239
 21
7.892077079101909
 31
0.0
  0
LINE
  5
F75
330
EC3
100
AcDbEntity
  8
0
 62
     0
 48
0.3
370
    -2
100
AcDbLine
 10
341.279056773624
 20
7.892077079101909
 30
0.0
 11
338.779056773624
 21
7.892077079101909
 31
0.0
  0
SOLID
  5
F76
330
EC3
100
AcDbEntity
  8
0
 62
     0
 48
0.3
100
AcDbTrace
 10
343.7790567736239
 20
8.308743745768575
 30
0.0
 11
343.7790567736239
 21
7.475410412435242
 31
0.0
 12
341.279056773624
 22
7.892077079101909
 32
0.0
 13
341.279056773624
 23
7.892077079101909
 33
0.0
  0
SOLID
  5
F77
330
EC3
100
AcDbEntity
  8
0
 62
     0
 48
0.3
100
AcDbTrace
 10
336.279056773624
 20
8.308743745768575
 30
0.0
 11
336.279056773624
 21
7.475410412435242
 31
0.0
 12
338.779056773624
 22
7.892077079101909
 32
0.0
 13
338.779056773624
 23
7.892077079101909
 33
0.0
  0
MTEXT
  5
F78
330
EC3
100
AcDbEntity
  8
0
 62
     0
 48
0.3
100
AcDbMText
 10
329.404056773624
 20
9.767077079101909
 30
0.0
 40
2.5
 41
0.0
 71
     5
 72
     1
  1
%%c2.5
 73
     1
 44
1.0
  0
POINT
  5
F79
330
EC3
100
AcDbEntity
  8
Defpoints
 62
     0
 48
0.3
100
AcDbPoint
 10
341.279056773624
 20
9.334890043637415
 30
0.0
  0
POINT
  5
F7A
330
EC3
100
AcDbEntity
  8
Defpoints
 62
     0
 48
0.3
100
AcDbPoint
 10
338.779056773624
 20
9.334890043637415
 30
0.0
  0
POINT
  5
F7B
330
EC3
100
AcDbEntity
  8
Defpoints
 62
     0
 48
0.3
100
AcDbPoint
 10
338.779056773624
 20
7.892077079101909
 30
0.0
  0
ENDBLK
  5
ED0
330
EC3
100
AcDbEntity
  8
0
 62
     0
 48
0.3
100
AcDbBlockEnd
  0
BLOCK
  5
EDB
330
ED1
100
AcDbEntity
  8
0
 62
     0
 48
0.3
100
AcDbBlockBegin
  2
*D9
 70
     1
 10
0.0
 20
0.0
 30
0.0
  3
*D9
  1

  0
LINE
  5
F68
330
ED1
100
AcDbEntity
  8
0
 62
     0
 48
0.3
370
    -2
100
AcDbLine
 10
341.904056773624
 20
13.33489004363741
 30
0.0
 11
352.8188365100251
 21
13.33489004363741
 31
0.0
  0
LINE
  5
F69
330
ED1
100
AcDbEntity
  8
0
 62
     0
 48
0.3
370
    -2
100
AcDbLine
 10
341.904056773624
 20
5.334890043637415
 30
0.0
 11
352.8188365100251
 21
5.334890043637411
 31
0.0
  0
LINE
  5
F6A
330
ED1
100
AcDbEntity
  8
0
 62
     0
 48
0.3
370
    -2
100
AcDbLine
 10
351.5688365100251
 20
10.83489004363741
 30
0.0
 11
351.5688365100251
 21
7.834890043637411
 31
0.0
  0
SOLID
  5
F6B
330
ED1
100
AcDbEntity
  8
0
 62
     0
 48
0.3
100
AcDbTrace
 10
351.1521698433584
 20
10.83489004363741
 30
0.0
 11
351.9855031766918
 21
10.83489004363741
 31
0.0
 12
351.5688365100251
 22
13.33489004363741
 32
0.0
 13
351.5688365100251
 23
13.33489004363741
 33
0.0
  0
SOLID
  5
F6C
330
ED1
100
AcDbEntity
  8
0
 62
     0
 48
0.3
100
AcDbTrace
 10
351.1521698433584
 20
7.834890043637411
 30
0.0
 11
351.9855031766918
 21
7.834890043637411
 31
0.0
 12
351.5688365100251
 22
5.334890043637411
 32
0.0
 13
351.5688365100251
 23
5.334890043637411
 33
0.0
  0
MTEXT
  5
F6D
330
ED1
100
AcDbEntity
  8
0
 62
     0
 48
0.3
100
AcDbMText
 10
349.6938365100251
 20
9.334890043637468
 30
0.0
 40
2.5
 41
0.0
 71
     5
 72
     1
  1
8
 11
0.0000000000000001
 21
1.0
 31
0.0
 73
     1
 44
1.0
  0
POINT
  5
F6E
330
ED1
100
AcDbEntity
  8
Defpoints
 62
     0
 48
0.3
100
AcDbPoint
 10
341.279056773624
 20
13.33489004363741
 30
0.0
  0
POINT
  5
F6F
330
ED1
100
AcDbEntity
  8
Defpoints
 62
     0
 48
0.3
100
AcDbPoint
 10
341.279056773624
 20
5.334890043637415
 30
0.0
  0
POINT
  5
F70
330
ED1
100
AcDbEntity
  8
Defpoints
 62
     0
 48
0.3
100
AcDbPoint
 10
351.5688365100251
 20
5.334890043637411
 30
0.0
  0
ENDBLK
  5
EDC
330
ED1
100
AcDbEntity
  8
0
 62
     0
 48
0.3
100
AcDbBlockEnd
  0
BLOCK
  5
EE7
330
EDD
100
AcDbEntity
  8
0
 62
     0
 48
0.3
100
AcDbBlockBegin
  2
*D10
 70
     1
 10
0.0
 20
0.0
 30
0.0
  3
*D10
  1

  0
LINE
  5
F7C
330
EDD
100
AcDbEntity
  8
0
 62
     0
 48
0.3
370
    -2
100
AcDbLine
 10
341.9046460196135
 20
161.4018073783681
 30
0.0
 11
353.1252916844415
 21
161.4018073783681
 31
0.0
  0
LINE
  5
F7D
330
EDD
100
AcDbEntity
  8
0
 62
     0
 48
0.3
370
    -2
100
AcDbLine
 10
341.9046460196135
 20
150.4018073783681
 30
0.0
 11
353.1252916844415
 21
150.4018073783681
 31
0.0
  0
LINE
  5
F7E
330
EDD
100
AcDbEntity
  8
0
 62
     0
 48
0.3
370
    -2
100
AcDbLine
 10
351.8752916844415
 20
158.9018073783681
 30
0.0
 11
351.8752916844415
 21
152.9018073783681
 31
0.0
  0
SOLID
  5
F7F
330
EDD
100
AcDbEntity
  8
0
 62
     0
 48
0.3
100
AcDbTrace
 10
351.4586250177748
 20
158.9018073783681
 30
0.0
 11
352.2919583511082
 21
158.9018073783681
 31
0.0
 12
351.8752916844415
 22
161.4018073783681
 32
0.0
 13
351.8752916844415
 23
161.4018073783681
 33
0.0
  0
SOLID
  5
F80
330
EDD
100
AcDbEntity
  8
0
 62
     0
 48
0.3
100
AcDbTrace
 10
351.4586250177748
 20
152.9018073783681
 30
0.0
 11
352.2919583511082
 21
152.9018073783681
 31
0.0
 12
351.8752916844415
 22
150.4018073783681
 32
0.0
 13
351.8752916844415
 23
150.4018073783681
 33
0.0
  0
MTEXT
  5
F81
330
EDD
100
AcDbEntity
  8
0
 62
     0
 48
0.3
100
AcDbMText
 10
350.0002916844414
 20
155.9018073783681
 30
0.0
 40
2.5
 41
0.0
 71
     5
 72
     1
  1
11
 11
0.0000000000000001
 21
1.0
 31
0.0
 73
     1
 44
1.0
  0
POINT
  5
F82
330
EDD
100
AcDbEntity
  8
Defpoints
 62
     0
 48
0.3
100
AcDbPoint
 10
341.2796460196135
 20
161.4018073783681
 30
0.0
  0
POINT
  5
F83
330
EDD
100
AcDbEntity
  8
Defpoints
 62
     0
 48
0.3
100
AcDbPoint
 10
341.2796460196135
 20
150.4018073783681
 30
0.0
  0
POINT
  5
F84
330
EDD
100
AcDbEntity
  8
Defpoints
 62
     0
 48
0.3
100
AcDbPoint
 10
351.8752916844415
 20
150.4018073783681
 30
0.0
  0
ENDBLK
  5
EE8
330
EDD
100
AcDbEntity
  8
0
 62
     0
 48
0.3
100
AcDbBlockEnd
  0
BLOCK
  5
EF5
330
EE9
100
AcDbEntity
  8
0
 62
     0
 48
0.3
100
AcDbBlockBegin
  2
*D11
 70
     1
 10
0.0
 20
0.0
 30
0.0
  3
*D11
  1

  0
LINE
  5
F8F
330
EE9
100
AcDbEntity
  8
0
 62
     0
 48
0.3
370
    -2
100
AcDbLine
 10
342.0296460196135
 20
155.2768073783681
 30
0.0
 11
342.0296460196135
 21
153.6484499717389
 31
0.0
  0
LINE
  5
F90
330
EE9
100
AcDbEntity
  8
0
 62
     0
 48
0.3
370
    -2
100
AcDbLine
 10
339.0296460196135
 20
155.2768073783681
 30
0.0
 11
339.0296460196135
 21
153.6484499717389
 31
0.0
  0
LINE
  5
F91
330
EE9
100
AcDbEntity
  8
0
 62
     0
 48
0.3
370
    -2
100
AcDbLine
 10
344.5296460196135
 20
154.8984499717389
 30
0.0
 11
347.0296460196135
 21
154.8984499717389
 31
0.0
  0
LINE
  5
F92
330
EE9
100
AcDbEntity
  8
0
 62
     0
 48
0.3
370
    -2
100
AcDbLine
 10
336.5296460196135
 20
154.8984499717389
 30
0.0
 11
328.6129793529468
 21
154.8984499717389
 31
0.0
  0
LINE
  5
F93
330
EE9
100
AcDbEntity
  8
0
 62
     0
 48
0.3
370
    -2
100
AcDbLine
 10
342.0296460196135
 20
154.8984499717389
 30
0.0
 11
339.0296460196135
 21
154.8984499717389
 31
0.0
  0
SOLID
  5
F94
330
EE9
100
AcDbEntity
  8
0
 62
     0
 48
0.3
100
AcDbTrace
 10
344.5296460196135
 20
155.3151166384056
 30
0.0
 11
344.5296460196135
 21
154.4817833050722
 31
0.0
 12
342.0296460196135
 22
154.8984499717389
 32
0.0
 13
342.0296460196135
 23
154.8984499717389
 33
0.0
  0
SOLID
  5
F95
330
EE9
100
AcDbEntity
  8
0
 62
     0
 48
0.3
100
AcDbTrace
 10
336.5296460196135
 20
155.3151166384056
 30
0.0
 11
336.5296460196135
 21
154.4817833050722
 31
0.0
 12
339.0296460196135
 22
154.8984499717389
 32
0.0
 13
339.0296460196135
 23
154.8984499717389
 33
0.0
  0
MTEXT
  5
F96
330
EE9
100
AcDbEntity
  8
0
 62
     0
 48
0.3
100
AcDbMText
 10
331.3213126862802
 20
156.7734499717389
 30
0.0
 40
2.5
 41
0.0
 71
     5
 72
     1
  1
%%c3
 73
     1
 44
1.0
  0
POINT
  5
F97
330
EE9
100
AcDbEntity
  8
Defpoints
 62
     0
 48
0.3
100
AcDbPoint
 10
342.0296460196135
 20
155.9018073783681
 30
0.0
  0
POINT
  5
F98
330
EE9
100
AcDbEntity
  8
Defpoints
 62
     0
 48
0.3
100
AcDbPoint
 10
339.0296460196135
 20
155.9018073783681
 30
0.0
  0
POINT
  5
F99
330
EE9
100
AcDbEntity
  8
Defpoints
 62
     0
 48
0.3
100
AcDbPoint
 10
339.0296460196135
 20
154.8984499717389
 30
0.0
  0
ENDBLK
  5
EF6
330
EE9
100
AcDbEntity
  8
0
 62
     0
 48
0.3
100
AcDbBlockEnd
  0
BLOCK
  5
F02
330
EF7
100
AcDbEntity
  8
0
 62
     0
 48
0.3
100
AcDbBlockBegin
  2
*D12
 70
     1
 10
0.0
 20
0.0
 30
0.0
  3
*D12
  1

  0
LINE
  5
F85
330
EF7
100
AcDbEntity
  8
0
 62
     0
 48
0.3
370
    -2
100
AcDbLine
 10
343.7796460196135
 20
172.5768073783681
 30
0.0
 11
343.7796460196135
 21
181.5474450221382
 31
0.0
  0
LINE
  5
F86
330
EF7
100
AcDbEntity
  8
0
 62
     0
 48
0.3
370
    -2
100
AcDbLine
 10
337.2796460196135
 20
172.5768073783681
 30
0.0
 11
337.2796460196135
 21
181.5474450221382
 31
0.0
  0
LINE
  5
F87
330
EF7
100
AcDbEntity
  8
0
 62
     0
 48
0.3
370
    -2
100
AcDbLine
 10
341.2796460196135
 20
180.2974450221382
 30
0.0
 11
339.7796460196135
 21
180.2974450221382
 31
0.0
  0
LINE
  5
F88
330
EF7
100
AcDbEntity
  8
0
 62
     0
 48
0.3
370
    -2
100
AcDbLine
 10
337.2796460196135
 20
180.2974450221382
 30
0.0
 11
326.0296460196135
 21
180.2974450221382
 31
0.0
  0
SOLID
  5
F89
330
EF7
100
AcDbEntity
  8
0
 62
     0
 48
0.3
100
AcDbTrace
 10
341.2796460196135
 20
180.7141116888049
 30
0.0
 11
341.2796460196135
 21
179.8807783554716
 31
0.0
 12
343.7796460196135
 22
180.2974450221382
 32
0.0
 13
343.7796460196135
 23
180.2974450221382
 33
0.0
  0
SOLID
  5
F8A
330
EF7
100
AcDbEntity
  8
0
 62
     0
 48
0.3
100
AcDbTrace
 10
339.7796460196135
 20
180.7141116888049
 30
0.0
 11
339.7796460196135
 21
179.8807783554716
 31
0.0
 12
337.2796460196135
 22
180.2974450221382
 32
0.0
 13
337.2796460196135
 23
180.2974450221382
 33
0.0
  0
MTEXT
  5
F8B
330
EF7
100
AcDbEntity
  8
0
 62
     0
 48
0.3
100
AcDbMText
 10
330.4046460196135
 20
182.1724450221382
 30
0.0
 40
2.5
 41
0.0
 71
     5
 72
     1
  1
%%c6.5
 73
     1
 44
1.0
  0
POINT
  5
F8C
330
EF7
100
AcDbEntity
  8
Defpoints
 62
     0
 48
0.3
100
AcDbPoint
 10
343.7796460196135
 20
171.9518073783681
 30
0.0
  0
POINT
  5
F8D
330
EF7
100
AcDbEntity
  8
Defpoints
 62
     0
 48
0.3
100
AcDbPoint
 10
337.2796460196135
 20
171.9518073783681
 30
0.0
  0
POINT
  5
F8E
330
EF7
100
AcDbEntity
  8
Defpoints
 62
     0
 48
0.3
100
AcDbPoint
 10
337.2796460196135
 20
180.2974450221382
 30
0.0
  0
ENDBLK
  5
F03
330
EF7
100
AcDbEntity
  8
0
 62
     0
 48
0.3
100
AcDbBlockEnd
  0
ENDSEC
  0
SECTION
  2
ENTITIES
  0
VIEWPORT
  5
2E
330
1B
100
AcDbEntity
 67
     1
  8
0
100
AcDbViewport
 10
109.7646158373984
 20
52.14214403558674
 30
0.0
 40
536.5708097571664
 41
355.2438748595375
 68
     1
 69
     1
 12
109.7646158373984
 22
52.14214403558674
 13
0.0
 23
0.0
 14
10.0
 24
10.0
 15
10.0
 25
10.0
 16
0.0
 26
0.0
 36
1.0
 17
0.0
 27
0.0
 37
0.0
 42
50.0
 43
0.0
 44
0.0
 45
355.2438748595375
 50
0.0
 51
0.0
 72
   100
 90
    32800
  1

281
     0
 71
     1
 74
     0
110
0.0
120
0.0
130
0.0
111
1.0
121
0.0
131
0.0
112
0.0
122
1.0
132
0.0
 79
     0
146
0.0
  0
VIEWPORT
  5
BD
330
1B
100
AcDbEntity
 67
     1
  8
Viewport
 62
     0
100
AcDbViewport
 10
167.8173008041888
 20
100.2252410244183
 30
0.0
 40
262.0
 41
190.0
 68
     2
 69
     2
 12
241.2741459943118
 22
150.4998509320097
 13
0.0
 23
0.0
 14
10.0
 24
10.0
 15
10.0
 25
10.0
 16
0.0
 26
0.0
 36
1.0
 17
0.0
 27
0.0
 37
0.0
 42
50.0
 43
0.0
 44
0.0
 45
292.2237086849415
 50
0.0
 51
0.0
 72
   100
 90
    32832
  1

281
     0
 71
     1
 74
     0
110
0.0
120
0.0
130
0.0
111
1.0
121
0.0
131
0.0
112
0.0
122
1.0
132
0.0
 79
     0
146
0.0
  0
MTEXT
  5
A2F
330
1B
100
AcDbEntity
 67
     1
  8
0
 62
     0
 48
0.3
100
AcDbMText
 10
61.26202932088711
 20
171.3616257708939
 30
0.0
 40
4.0
 41
61.3443
 71
     1
 72
     5
  1
取付けイメージ
 73
     1
 44
1.0
  0
LWPOLYLINE
  5
A30
330
1B
100
AcDbEntity
 67
     1
  8
0
 62
     0
 48
0.3
100
AcDbPolyline
 90
        4
 70
     1
 43
0.0
 10
57.17761654686672
 20
174.107126971453
 10
96.85302812336249
 20
174.107126971453
 10
96.85302812336249
 20
164.3453439343395
 10
57.17761654686672
 20
164.3453439343395
  0
LINE
  5
A9C
330
1B
100
AcDbEntity
 67
     1
  8
0
 62
     0
 48
0.5
100
AcDbLine
 10
67.73592711499566
 20
122.9005174107055
 30
0.0
 11
73.4245627484384
 21
124.474650983821
 31
0.0
  0
LINE
  5
A9D
330
1B
100
AcDbEntity
 67
     1
  8
0
 62
     0
 48
0.5
100
AcDbLine
 10
73.39336209849412
 20
124.6213701694888
 30
0.0
 11
67.69406023809714
 21
123.0438980267045
 31
0.0
  0
LINE
  5
A9F
330
1B
100
AcDbEntity
 67
     1
  8
0
 62
     0
 48
0.5
100
AcDbLine
 10
65.78746242948589
 20
122.8183816382443
 30
0.0
 11
65.96863576105764
 21
122.1422335598419
 31
0.0
  0
LINE
  5
AA0
330
1B
100
AcDbEntity
 67
     1
  8
0
 62
     0
 48
0.5
100
AcDbLine
 10
61.85275523538189
 20
120.6174836437812
 30
0.0
 11
66.85275523538189
 21
120.6174836437812
 31
0.0
  0
LINE
  5
AA1
330
1B
100
AcDbEntity
 67
     1
  8
0
 62
     0
 48
0.5
100
AcDbLine
 10
66.85275523538189
 20
120.8174836437812
 30
0.0
 11
61.85275523538189
 21
120.8174836437812
 31
0.0
  0
LINE
  5
AA2
330
1B
100
AcDbEntity
 67
     1
  8
0
 62
     0
 48
0.5
100
AcDbLine
 10
66.78218020684977
 20
123.2402068904473
 30
0.0
 11
65.74863957272049
 21
122.9632705121877
 31
0.0
  0
LINE
  5
AA3
330
1B
100
AcDbEntity
 67
     1
  8
0
 62
     0
 48
0.2
100
AcDbLine
 10
65.74863957272049
 20
122.9632705121877
 30
0.0
 11
64.11724635022025
 21
122.5261400156811
 31
0.0
  0
LINE
  5
AA4
330
1B
100
AcDbEntity
 67
     1
  8
0
 62
     0
 48
0.5
100
AcDbLine
 10
61.85275523538189
 20
120.8174836437812
 30
0.0
 11
61.85275523538189
 21
120.6174836437812
 31
0.0
  0
LINE
  5
AA5
330
1B
100
AcDbEntity
 67
     1
  8
0
 62
     0
 48
0.5
100
AcDbLine
 10
64.95275523538189
 20
120.8174836437812
 30
0.0
 11
64.95275523538189
 21
121.4174836437812
 31
0.0
  0
LINE
  5
AA6
330
1B
100
AcDbEntity
 67
     1
  8
0
 62
     0
 48
0.5
100
AcDbLine
 10
63.75275523538189
 20
121.4174836437812
 30
0.0
 11
63.75275523538189
 21
120.8174836437812
 31
0.0
  0
LINE
  5
AA7
330
1B
100
AcDbEntity
 67
     1
  8
0
 62
     0
 48
0.5
100
AcDbLine
 10
64.35275523538189
 20
120.8174836437812
 30
0.0
 11
64.95275523538189
 21
120.8174836437812
 31
0.0
  0
ARC
  5
AA8
330
1B
100
AcDbEntity
 67
     1
  8
0
 62
     0
 48
0.5
100
AcDbCircle
 10
64.5556538540838
 20
121.3694160562492
 30
0.0
 40
0.4
100
AcDbArc
 50
6.901854347145329
 51
60.47828070481425
  0
ARC
  5
AAA
330
1B
100
AcDbEntity
 67
     1
  8
0
 62
     0
 48
0.5
100
AcDbCircle
 10
64.14985661667998
 20
121.3694160562492
 30
0.0
 40
0.4
100
AcDbArc
 50
119.5217192951857
 51
173.0981456528546
  0
LINE
  5
AAD
330
1B
100
AcDbEntity
 67
     1
  8
0
 62
     0
 48
0.5
100
AcDbLine
 10
64.7527552353819
 20
121.7174836437812
 30
0.0
 11
63.95275523538188
 21
121.7174836437812
 31
0.0
  0
LINE
  5
AAE
330
1B
100
AcDbEntity
 67
     1
  8
0
 62
     0
 48
0.5
100
AcDbLine
 10
65.74863957272049
 20
122.9632705121877
 30
0.0
 11
65.78746242948589
 21
122.8183816382443
 31
0.0
  0
LINE
  5
AAF
330
1B
100
AcDbEntity
 67
     1
  8
0
 62
     0
 48
0.5
100
AcDbLine
 10
66.007458617823
 20
121.9973446858986
 30
0.0
 11
67.04099925195231
 21
122.2742810641583
 31
0.0
  0
LINE
  5
AB0
330
1B
100
AcDbEntity
 67
     1
  8
0
 62
     0
 48
0.5
100
AcDbLine
 10
66.85275523538189
 20
120.6174836437812
 30
0.0
 11
66.85275523538189
 21
120.8174836437812
 31
0.0
  0
LINE
  5
AB1
330
1B
100
AcDbEntity
 67
     1
  8
0
 62
     0
 48
0.5
100
AcDbLine
 10
65.96863576105764
 20
122.1422335598419
 30
0.0
 11
66.007458617823
 21
121.9973446858986
 31
0.0
  0
LINE
  5
AB2
330
1B
100
AcDbEntity
 67
     1
  8
0
 62
     0
 48
0.5
100
AcDbLine
 10
67.67448530845562
 20
123.1169526586813
 30
0.0
 11
66.90174464742435
 21
122.9098974225992
 31
0.0
  0
LINE
  5
AB3
330
1B
100
AcDbEntity
 67
     1
  8
0
 62
     0
 48
0.5
100
AcDbLine
 10
66.97939036095513
 20
122.6201196747125
 30
0.0
 11
67.75213102198637
 21
122.8271749107945
 31
0.0
  0
LINE
  5
AB4
330
1B
100
AcDbEntity
 67
     1
  8
0
 62
     0
 48
0.5
100
AcDbLine
 10
67.06221245538791
 20
122.3110234103
 30
0.0
 11
66.97939036095513
 21
122.6201196747125
 31
0.0
  0
LINE
  5
AB5
330
1B
100
AcDbEntity
 67
     1
  8
0
 62
     0
 48
0.5
100
AcDbLine
 10
66.90174464742435
 20
122.9098974225992
 30
0.0
 11
66.97939036095513
 21
122.6201196747125
 31
0.0
  0
LINE
  5
AB6
330
1B
100
AcDbEntity
 67
     1
  8
0
 62
     0
 48
0.5
100
AcDbLine
 10
67.06221245538791
 20
122.3110234103
 30
0.0
 11
67.04099925195231
 21
122.2742810641583
 31
0.0
  0
LINE
  5
AB7
330
1B
100
AcDbEntity
 67
     1
  8
0
 62
     0
 48
0.5
100
AcDbLine
 10
66.81892255299155
 20
123.2189936870117
 30
0.0
 11
66.78218020684977
 21
123.2402068904473
 31
0.0
  0
LINE
  5
AB8
330
1B
100
AcDbEntity
 67
     1
  8
0
 62
     0
 48
0.5
100
AcDbLine
 10
66.90174464742435
 20
122.9098974225992
 30
0.0
 11
66.81892255299155
 21
123.2189936870117
 31
0.0
  0
LINE
  5
AB9
330
1B
100
AcDbEntity
 67
     1
  8
0
 62
     0
 48
0.3
100
AcDbLine
 10
67.67448530845562
 20
123.1169526586813
 30
0.0
 11
67.75213102198637
 21
122.8271749107945
 31
0.0
  0
LINE
  5
ADA
330
1B
100
AcDbEntity
 67
     1
  8
0
 62
     0
 48
0.5
100
AcDbLine
 10
104.345509234446
 20
132.4098193665482
 30
0.0
 11
105.445509234446
 21
132.4098193665482
 31
0.0
  0
LINE
  5
ADB
330
1B
100
AcDbEntity
 67
     1
  8
0
 62
     0
 48
0.5
100
AcDbLine
 10
105.445509234446
 20
133.6098193665482
 30
0.0
 11
104.345509234446
 21
133.6098193665482
 31
0.0
  0
ARC
  5
ADE
330
1B
100
AcDbEntity
 67
     1
  8
0
 62
     0
 48
0.5
100
AcDbCircle
 10
104.345509234446
 20
133.2098193665482
 30
0.0
 40
0.4
100
AcDbArc
 50
90.0
 51
180.0
  0
ARC
  5
ADF
330
1B
100
AcDbEntity
 67
     1
  8
0
 62
     0
 48
0.5
100
AcDbCircle
 10
104.345509234446
 20
132.8098193665482
 30
0.0
 40
0.4
100
AcDbArc
 50
180.0
 51
270.0
  0
ARC
  5
AE0
330
1B
100
AcDbEntity
 67
     1
  8
0
 62
     0
 48
0.3
100
AcDbCircle
 10
103.6555919185728
 20
133.0098193665482
 30
0.0
 40
0.3522102355740535
100
AcDbArc
 50
325.4000749434188
 51
34.59992505658157
  0
ARC
  5
AE2
330
1B
100
AcDbEntity
 67
     1
  8
0
 62
     0
 48
0.3
100
AcDbCircle
 10
104.0294525234908
 20
132.7292461492411
 30
0.0
 40
0.2082812629273261
100
AcDbArc
 50
98.17009995620255
 51
121.5230225047416
  0
LINE
  5
AE3
330
1B
100
AcDbEntity
 67
     1
  8
0
 62
     0
 48
0.3
100
AcDbLine
 10
106.445509234446
 20
142.4941148210793
 30
0.0
 11
106.445509234446
 21
146.6402084549212
 31
0.0
  0
LINE
  5
AE6
330
1B
100
AcDbEntity
 67
     1
  8
0
 62
     0
 48
0.3
100
AcDbLine
 10
106.445509234446
 20
136.3363572652548
 30
0.0
 11
106.445509234446
 21
140.4824508990966
 31
0.0
  0
LINE
  5
AE9
330
1B
100
AcDbEntity
 67
     1
  8
0
 62
     0
 48
0.5
100
AcDbLine
 10
106.445509234446
 20
133.8698193665482
 30
0.0
 11
106.445509234446
 21
131.5598193665482
 31
0.0
  0
LINE
  5
AEA
330
1B
100
AcDbEntity
 67
     1
  8
0
 62
     0
 48
0.3
100
AcDbLine
 10
106.320509234446
 20
131.7498193665482
 30
0.0
 11
106.320509234446
 21
132.0998193665482
 31
0.0
  0
LINE
  5
AEB
330
1B
100
AcDbEntity
 67
     1
  8
0
 62
     0
 48
0.3
100
AcDbLine
 10
105.920509234446
 20
132.0998193665482
 30
0.0
 11
105.920509234446
 21
131.7498193665482
 31
0.0
  0
LINE
  5
AEC
330
1B
100
AcDbEntity
 67
     1
  8
0
 62
     0
 48
0.3
100
AcDbLine
 10
105.5256339053819
 20
132.0536113440756
 30
0.0
 11
105.8521976006393
 21
131.6014206787475
 31
0.0
  0
LINE
  5
AED
330
1B
100
AcDbEntity
 67
     1
  8
0
 62
     0
 48
0.3
100
AcDbLine
 10
106.445509234446
 20
131.5598193665482
 30
0.0
 11
106.265509234446
 21
131.5598193665482
 31
0.0
  0
LINE
  5
AF1
330
1B
100
AcDbEntity
 67
     1
  8
0
 62
     0
 48
0.3
100
AcDbLine
 10
106.245509234446
 20
131.5798193665482
 30
0.0
 11
106.245509234446
 21
131.7298193665482
 31
0.0
  0
LINE
  5
AF2
330
1B
100
AcDbEntity
 67
     1
  8
0
 62
     0
 48
0.3
100
AcDbLine
 10
106.265509234446
 20
131.7498193665482
 30
0.0
 11
106.320509234446
 21
131.7498193665482
 31
0.0
  0
ARC
  5
AF3
330
1B
100
AcDbEntity
 67
     1
  8
0
 62
     0
 48
0.3
100
AcDbCircle
 10
106.265509234446
 20
131.7298193665482
 30
0.0
 40
0.02
100
AcDbArc
 50
90.0
 51
180.0
  0
ARC
  5
AF4
330
1B
100
AcDbEntity
 67
     1
  8
0
 62
     0
 48
0.3
100
AcDbCircle
 10
106.265509234446
 20
131.5798193665482
 30
0.0
 40
0.02
100
AcDbArc
 50
180.0
 51
270.0
  0
LINE
  5
AF5
330
1B
100
AcDbEntity
 67
     1
  8
0
 62
     0
 48
0.3
100
AcDbLine
 10
105.920509234446
 20
131.7498193665482
 30
0.0
 11
105.975509234446
 21
131.7498193665482
 31
0.0
  0
LINE
  5
AF6
330
1B
100
AcDbEntity
 67
     1
  8
0
 62
     0
 48
0.3
100
AcDbLine
 10
105.995509234446
 20
131.7298193665482
 30
0.0
 11
105.995509234446
 21
131.5798193665482
 31
0.0
  0
LINE
  5
AF7
330
1B
100
AcDbEntity
 67
     1
  8
0
 62
     0
 48
0.3
100
AcDbLine
 10
105.975509234446
 20
131.5598193665482
 30
0.0
 11
105.9240745434659
 21
131.5598193665482
 31
0.0
  0
ARC
  5
AF8
330
1B
100
AcDbEntity
 67
     1
  8
0
 62
     0
 48
0.3
100
AcDbCircle
 10
105.975509234446
 20
131.7298193665482
 30
0.0
 40
0.02
100
AcDbArc
 50
0.0
 51
90.0
  0
ARC
  5
AF9
330
1B
100
AcDbEntity
 67
     1
  8
0
 62
     0
 48
0.3
100
AcDbCircle
 10
105.975509234446
 20
131.5798193665482
 30
0.0
 40
0.02
100
AcDbArc
 50
270.0
 51
0.0
  0
LINE
  5
AFA
330
1B
100
AcDbEntity
 67
     1
  8
0
 62
     0
 48
0.3
100
AcDbLine
 10
105.9323934289199
 20
131.5599713765533
 30
0.0
 11
105.949791888956
 21
131.5598193665482
 31
0.0
  0
ARC
  5
AFB
330
1B
100
AcDbEntity
 67
     1
  8
0
 62
     0
 48
0.3
100
AcDbCircle
 10
105.9332670936194
 20
131.6599675600304
 30
0.0
 40
0.1
100
AcDbArc
 50
215.8361163954256
 51
269.499420631834
  0
LINE
  5
AFC
330
1B
100
AcDbEntity
 67
     1
  8
0
 62
     0
 48
0.3
100
AcDbLine
 10
106.295509234446
 20
133.6698193665482
 30
0.0
 11
106.295509234446
 21
133.5405300446669
 31
0.0
  0
LINE
  5
AFD
330
1B
100
AcDbEntity
 67
     1
  8
0
 62
     0
 48
0.3
100
AcDbLine
 10
105.445509234446
 20
133.6698193665482
 30
0.0
 11
105.445509234446
 21
133.4398193665482
 31
0.0
  0
LINE
  5
AFE
330
1B
100
AcDbEntity
 67
     1
  8
0
 62
     0
 48
0.3
100
AcDbLine
 10
105.595509234446
 20
133.5198193665481
 30
0.0
 11
105.595509234446
 21
133.6698193665482
 31
0.0
  0
LINE
  5
AFF
330
1B
100
AcDbEntity
 67
     1
  8
0
 62
     0
 48
0.3
100
AcDbLine
 10
106.245509234446
 20
133.100113934991
 30
0.0
 11
106.245509234446
 21
133.2098193665482
 31
0.0
  0
ARC
  5
B00
330
1B
100
AcDbEntity
 67
     1
  8
0
 62
     0
 48
0.3
100
AcDbCircle
 10
106.3258718222442
 20
133.0098193665482
 30
0.0
 40
0.2155415169233375
100
AcDbArc
 50
111.890899807055
 51
174.6758917708783
  0
LINE
  5
B01
330
1B
100
AcDbEntity
 67
     1
  8
0
 62
     0
 48
0.5
100
AcDbLine
 10
105.980509234446
 20
133.6598193665482
 30
0.0
 11
105.980509234446
 21
132.3598193665482
 31
0.0
  0
LINE
  5
B02
330
1B
100
AcDbEntity
 67
     1
  8
0
 62
     0
 48
0.3
100
AcDbLine
 10
106.245509234446
 20
133.4491086884295
 30
0.0
 11
106.245509234446
 21
133.0598193665482
 31
0.0
  0
LINE
  5
B03
330
1B
100
AcDbEntity
 67
     1
  8
0
 62
     0
 48
0.3
100
AcDbLine
 10
106.245509234446
 20
132.9598193665482
 30
0.0
 11
106.245509234446
 21
132.9195247981054
 31
0.0
  0
LINE
  5
B04
330
1B
100
AcDbEntity
 67
     1
  8
0
 62
     0
 48
0.3
100
AcDbLine
 10
106.245509234446
 20
133.100113934991
 30
0.0
 11
106.245509234446
 21
133.0598193665482
 31
0.0
  0
LINE
  5
B05
330
1B
100
AcDbEntity
 67
     1
  8
0
 62
     0
 48
0.3
100
AcDbLine
 10
106.295509234446
 20
133.0098193665482
 30
0.0
 11
106.245509234446
 21
133.0598193665482
 31
0.0
  0
LINE
  5
B06
330
1B
100
AcDbEntity
 67
     1
  8
0
 62
     0
 48
0.3
100
AcDbLine
 10
106.295509234446
 20
133.0098193665482
 30
0.0
 11
106.245509234446
 21
132.9598193665482
 31
0.0
  0
LINE
  5
B07
330
1B
100
AcDbEntity
 67
     1
  8
0
 62
     0
 48
0.3
100
AcDbLine
 10
106.245509234446
 20
132.9195247981054
 30
0.0
 11
106.245509234446
 21
132.8098193665482
 31
0.0
  0
LINE
  5
B08
330
1B
100
AcDbEntity
 67
     1
  8
0
 62
     0
 48
0.3
100
AcDbLine
 10
106.1554308129354
 20
133.0098193665482
 30
0.0
 11
106.1554308129354
 21
133.0298193665482
 31
0.0
  0
LINE
  5
B09
330
1B
100
AcDbEntity
 67
     1
  8
0
 62
     0
 48
0.3
100
AcDbLine
 10
106.1554308129354
 20
133.0098193665482
 30
0.0
 11
106.1554308129354
 21
132.9898193665482
 31
0.0
  0
LINE
  5
B0A
330
1B
100
AcDbEntity
 67
     1
  8
0
 62
     0
 48
0.3
100
AcDbLine
 10
106.1554308129354
 20
133.0298193665482
 30
0.0
 11
106.1112602067206
 21
133.0298193665482
 31
0.0
  0
LINE
  5
B0B
330
1B
100
AcDbEntity
 67
     1
  8
0
 62
     0
 48
0.3
100
AcDbLine
 10
106.1112602067206
 20
132.9898193665482
 30
0.0
 11
106.1554308129354
 21
132.9898193665482
 31
0.0
  0
ARC
  5
B0C
330
1B
100
AcDbEntity
 67
     1
  8
0
 62
     0
 48
0.3
100
AcDbCircle
 10
106.3258718222442
 20
133.0098193665482
 30
0.0
 40
0.2155415169233375
100
AcDbArc
 50
185.3241082291201
 51
248.1091001929435
  0
ARC
  5
B0D
330
1B
100
AcDbEntity
 67
     1
  8
0
 62
     0
 48
0.3
100
AcDbCircle
 10
106.245509234446
 20
132.3498193665482
 30
0.0
 40
0.05
100
AcDbArc
 50
270.0
 51
0.0
  0
LINE
  5
B0E
330
1B
100
AcDbEntity
 67
     1
  8
0
 62
     0
 48
0.3
100
AcDbLine
 10
106.320509234446
 20
132.0998193665482
 30
0.0
 11
105.920509234446
 21
132.0998193665482
 31
0.0
  0
LINE
  5
B0F
330
1B
100
AcDbEntity
 67
     1
  8
0
 62
     0
 48
0.3
100
AcDbLine
 10
106.295509234446
 20
132.4791086884295
 30
0.0
 11
106.295509234446
 21
132.3498193665482
 31
0.0
  0
LINE
  5
B10
330
1B
100
AcDbEntity
 67
     1
  8
0
 62
     0
 48
0.3
100
AcDbLine
 10
106.2808645735053
 20
132.5144640274889
 30
0.0
 11
106.2601538953867
 21
132.5351747056075
 31
0.0
  0
ARC
  5
B11
330
1B
100
AcDbEntity
 67
     1
  8
0
 62
     0
 48
0.3
100
AcDbCircle
 10
106.295509234446
 20
132.5705300446668
 30
0.0
 40
0.05
100
AcDbArc
 50
180.0
 51
224.9999999999997
  0
ARC
  5
B12
330
1B
100
AcDbEntity
 67
     1
  8
0
 62
     0
 48
0.3
100
AcDbCircle
 10
106.245509234446
 20
132.4791086884295
 30
0.0
 40
0.05
100
AcDbArc
 50
0.0
 51
44.99999999999857
  0
LINE
  5
B13
330
1B
100
AcDbEntity
 67
     1
  8
0
 62
     0
 48
0.3
100
AcDbLine
 10
106.245509234446
 20
132.9596497115612
 30
0.0
 11
106.245509234446
 21
132.5705300446668
 31
0.0
  0
LINE
  5
B14
330
1B
100
AcDbEntity
 67
     1
  8
0
 62
     0
 48
0.3
100
AcDbLine
 10
106.2808645735053
 20
133.5051747056075
 30
0.0
 11
106.2601538953867
 21
133.4844640274889
 31
0.0
  0
ARC
  5
B15
330
1B
100
AcDbEntity
 67
     1
  8
0
 62
     0
 48
0.3
100
AcDbCircle
 10
106.295509234446
 20
133.4491086884295
 30
0.0
 40
0.05
100
AcDbArc
 50
135.0000000000002
 51
180.0
  0
ARC
  5
B16
330
1B
100
AcDbEntity
 67
     1
  8
0
 62
     0
 48
0.3
100
AcDbCircle
 10
106.245509234446
 20
133.5405300446669
 30
0.0
 40
0.05
100
AcDbArc
 50
315.0000000000003
 51
0.0
  0
LINE
  5
B17
330
1B
100
AcDbEntity
 67
     1
  8
0
 62
     0
 48
0.5
100
AcDbLine
 10
105.445509234446
 20
133.6098193665482
 30
0.0
 11
105.445509234446
 21
132.4098193665482
 31
0.0
  0
LINE
  5
B18
330
1B
100
AcDbEntity
 67
     1
  8
0
 62
     0
 48
0.5
100
AcDbLine
 10
105.680509234446
 20
133.0098193665482
 30
0.0
 11
105.680509234446
 21
133.6598193665482
 31
0.0
  0
LINE
  5
B19
330
1B
100
AcDbEntity
 67
     1
  8
0
 62
     0
 48
0.5
100
AcDbLine
 10
105.580509234446
 20
133.0098193665482
 30
0.0
 11
105.580509234446
 21
133.4098193665482
 31
0.0
  0
LINE
  5
B1A
330
1B
100
AcDbEntity
 67
     1
  8
0
 62
     0
 48
0.5
100
AcDbLine
 10
105.680509234446
 20
133.0098193665482
 30
0.0
 11
105.680509234446
 21
133.4098193665482
 31
0.0
  0
ARC
  5
B1B
330
1B
100
AcDbEntity
 67
     1
  8
0
 62
     0
 48
0.3
100
AcDbCircle
 10
105.9448144489108
 20
132.3261689928894
 30
0.0
 40
0.5
100
AcDbArc
 50
183.0208441177179
 51
213.0325430194644
  0
LINE
  5
B1C
330
1B
100
AcDbEntity
 67
     1
  8
0
 62
     0
 48
0.5
100
AcDbLine
 10
105.680509234446
 20
132.6098193665482
 30
0.0
 11
105.450509234446
 21
132.6098193665482
 31
0.0
  0
LINE
  5
B1D
330
1B
100
AcDbEntity
 67
     1
  8
0
 62
     0
 48
0.3
100
AcDbLine
 10
105.595509234446
 20
132.5998193665482
 30
0.0
 11
105.465509234446
 21
132.5998193665482
 31
0.0
  0
LINE
  5
B1E
330
1B
100
AcDbEntity
 67
     1
  8
0
 62
     0
 48
0.3
100
AcDbLine
 10
105.445509234446
 20
132.5798193665482
 30
0.0
 11
105.445509234446
 21
132.2998193665482
 31
0.0
  0
ARC
  5
B1F
330
1B
100
AcDbEntity
 67
     1
  8
0
 62
     0
 48
0.3
100
AcDbCircle
 10
105.465509234446
 20
132.5798193665482
 30
0.0
 40
0.02
100
AcDbArc
 50
90.0
 51
180.0
  0
ARC
  5
B20
330
1B
100
AcDbEntity
 67
     1
  8
0
 62
     0
 48
0.3
100
AcDbCircle
 10
105.645509234446
 20
132.3498193665482
 30
0.0
 40
0.05
100
AcDbArc
 50
180.0
 51
270.0
  0
LINE
  5
B21
330
1B
100
AcDbEntity
 67
     1
  8
0
 62
     0
 48
0.5
100
AcDbLine
 10
105.580509234446
 20
133.0098193665482
 30
0.0
 11
105.580509234446
 21
132.6098193665482
 31
0.0
  0
LINE
  5
B22
330
1B
100
AcDbEntity
 67
     1
  8
0
 62
     0
 48
0.5
100
AcDbLine
 10
105.680509234446
 20
133.0098193665482
 30
0.0
 11
105.680509234446
 21
132.6098193665482
 31
0.0
  0
LINE
  5
B23
330
1B
100
AcDbEntity
 67
     1
  8
0
 62
     0
 48
0.5
100
AcDbLine
 10
105.680509234446
 20
133.0098193665482
 30
0.0
 11
105.680509234446
 21
132.6098193665482
 31
0.0
  0
LINE
  5
B24
330
1B
100
AcDbEntity
 67
     1
  8
0
 62
     0
 48
0.5
100
AcDbLine
 10
105.680509234446
 20
132.3598193665482
 30
0.0
 11
105.680509234446
 21
133.0098193665482
 31
0.0
  0
LINE
  5
B25
330
1B
100
AcDbEntity
 67
     1
  8
0
 62
     0
 48
0.3
100
AcDbLine
 10
105.595509234446
 20
132.3498193665482
 30
0.0
 11
105.595509234446
 21
132.4998193665482
 31
0.0
  0
LINE
  5
B26
330
1B
100
AcDbEntity
 67
     1
  8
0
 62
     0
 48
0.3
100
AcDbLine
 10
105.595509234446
 20
132.4998193665482
 30
0.0
 11
105.595509234446
 21
132.4998399946116
 31
0.0
  0
ARC
  5
B27
330
1B
100
AcDbEntity
 67
     1
  8
0
 62
     0
 48
0.3
100
AcDbCircle
 10
105.595509234446
 20
132.5498193665482
 30
0.0
 40
0.05
100
AcDbArc
 50
270.0
 51
90.0
  0
LINE
  5
B28
330
1B
100
AcDbEntity
 67
     1
  8
0
 62
     0
 48
0.5
100
AcDbLine
 10
105.680509234446
 20
133.4098193665482
 30
0.0
 11
105.445509234446
 21
133.4098193665482
 31
0.0
  0
LINE
  5
B29
330
1B
100
AcDbEntity
 67
     1
  8
0
 62
     0
 48
0.3
100
AcDbLine
 10
105.465509234446
 20
133.4198193665482
 30
0.0
 11
105.595509234446
 21
133.4198193665482
 31
0.0
  0
ARC
  5
B2A
330
1B
100
AcDbEntity
 67
     1
  8
0
 62
     0
 48
0.3
100
AcDbCircle
 10
105.465509234446
 20
133.4398193665482
 30
0.0
 40
0.02
100
AcDbArc
 50
180.0
 51
270.0
  0
ARC
  5
B2B
330
1B
100
AcDbEntity
 67
     1
  8
0
 62
     0
 48
0.3
100
AcDbCircle
 10
105.465509234446
 20
133.4398193665482
 30
0.0
 40
0.02
100
AcDbArc
 50
180.0
 51
270.0
  0
ARC
  5
B2C
330
1B
100
AcDbEntity
 67
     1
  8
0
 62
     0
 48
0.3
100
AcDbCircle
 10
105.595509234446
 20
133.4698193665482
 30
0.0
 40
0.05
100
AcDbArc
 50
270.0
 51
90.0
  0
LINE
  5
B2D
330
1B
100
AcDbEntity
 67
     1
  8
0
 62
     0
 48
0.3
100
AcDbLine
 10
106.245509234446
 20
132.2998193665482
 30
0.0
 11
105.645509234446
 21
132.2998193665482
 31
0.0
  0
LINE
  5
B2E
330
1B
100
AcDbEntity
 67
     1
  8
0
 62
     0
 48
0.5
100
AcDbLine
 10
105.980509234446
 20
132.3598193665482
 30
0.0
 11
105.680509234446
 21
132.3598193665482
 31
0.0
  0
LINE
  5
B2F
330
1B
100
AcDbEntity
 67
     1
  8
0
 62
     0
 48
0.5
100
AcDbLine
 10
105.680509234446
 20
133.6598193665482
 30
0.0
 11
105.980509234446
 21
133.6598193665482
 31
0.0
  0
LINE
  5
B30
330
1B
100
AcDbEntity
 67
     1
  8
0
 62
     0
 48
0.3
100
AcDbLine
 10
107.1350173945814
 20
133.0216027284486
 30
0.0
 11
107.1326844432886
 21
132.9969717599277
 31
0.0
  0
LINE
  5
B31
330
1B
100
AcDbEntity
 67
     1
  8
0
 62
     0
 48
0.3
100
AcDbLine
 10
106.9867666969566
 20
133.0400716145619
 30
0.0
 11
106.9808933657645
 21
132.9780618177236
 31
0.0
  0
LINE
  5
B32
330
1B
100
AcDbEntity
 67
     1
  8
0
 62
     0
 48
0.3
100
AcDbLine
 10
106.5420146040821
 20
133.0954782729018
 30
0.0
 11
106.5255201331923
 21
132.9213319911112
 31
0.0
  0
LINE
  5
B33
330
1B
100
AcDbEntity
 67
     1
  8
0
 62
     0
 48
0.3
100
AcDbLine
 10
106.8385159993318
 20
133.0585405006752
 30
0.0
 11
106.8291022882405
 21
132.9591518755194
 31
0.0
  0
LINE
  5
B34
330
1B
100
AcDbEntity
 67
     1
  8
0
 62
     0
 48
0.3
100
AcDbLine
 10
106.6902653017069
 20
133.0770093867885
 30
0.0
 11
106.6773112107164
 21
132.9402419333153
 31
0.0
  0
LINE
  5
B35
330
1B
100
AcDbEntity
 67
     1
  8
0
 62
     0
 48
0.3
100
AcDbLine
 10
107.2327079437709
 20
133.0094325622623
 30
0.0
 11
106.445509234446
 21
133.1075007909047
 31
0.0
  0
LINE
  5
B36
330
1B
100
AcDbEntity
 67
     1
  8
0
 62
     0
 48
0.3
100
AcDbLine
 10
106.445509234446
 20
132.9113643336199
 30
0.0
 11
107.2327079437709
 21
133.0094325622623
 31
0.0
  0
LINE
  5
B37
330
1B
100
AcDbEntity
 67
     1
  8
0
 62
     0
 48
0.3
100
AcDbLine
 10
106.445509234446
 20
133.8698193665482
 30
0.0
 11
105.645509234446
 21
133.8698193665482
 31
0.0
  0
ARC
  5
B38
330
1B
100
AcDbEntity
 67
     1
  8
0
 62
     0
 48
0.3
100
AcDbCircle
 10
106.245509234446
 20
133.6698193665482
 30
0.0
 40
0.05
100
AcDbArc
 50
0.0
 51
90.0
  0
ARC
  5
B39
330
1B
100
AcDbEntity
 67
     1
  8
0
 62
     0
 48
0.3
100
AcDbCircle
 10
105.645509234446
 20
133.6698193665482
 30
0.0
 40
0.2
100
AcDbArc
 50
90.0
 51
180.0
  0
ARC
  5
B3A
330
1B
100
AcDbEntity
 67
     1
  8
0
 62
     0
 48
0.3
100
AcDbCircle
 10
105.645509234446
 20
133.6698193665482
 30
0.0
 40
0.05
100
AcDbArc
 50
90.0
 51
180.0
  0
LINE
  5
B3B
330
1B
100
AcDbEntity
 67
     1
  8
0
 62
     0
 48
0.3
100
AcDbLine
 10
105.645509234446
 20
133.7198193665482
 30
0.0
 11
106.245509234446
 21
133.7198193665482
 31
0.0
  0
LINE
  5
B3E
330
1B
100
AcDbEntity
 67
     1
  8
0
 62
     0
 48
0.3
100
AcDbLine
 10
106.445509234446
 20
19.71193195303738
 30
0.0
 11
106.445509234446
 21
156.6084067267901
 31
0.0
  0
LINE
  5
B3F
330
1B
100
AcDbEntity
 67
     1
  8
0
 62
     0
 48
0.3
100
AcDbLine
 10
106.445509234446
 20
156.6084067267901
 30
0.0
 11
44.67082693156408
 21
156.6084067267901
 31
0.0
  0
LINE
  5
B42
330
1B
100
AcDbEntity
 67
     1
  8
0
 62
     0
 48
0.3
100
AcDbLine
 10
106.445509234446
 20
120.6174836437812
 30
0.0
 11
61.44550923444604
 21
120.6174836437812
 31
0.0
  0
LINE
  5
B43
330
1B
100
AcDbEntity
 67
     1
  8
0
 62
     0
 48
0.3
100
AcDbLine
 10
61.44550923444604
 20
120.6174836437812
 30
0.0
 11
61.44550923444601
 21
20.69215327280449
 31
0.0
  0
ARC
  5
B46
330
1B
100
AcDbEntity
 67
     1
  8
0
 62
     0
 48
0.3
100
AcDbCircle
 10
64.16729246679835
 20
122.3490454427065
 30
0.0
 40
0.1840301648143335
100
AcDbArc
 50
104.2199506705539
 51
147.8579613051991
  0
ARC
  5
B48
330
1B
100
AcDbEntity
 67
     1
  8
0
 62
     0
 48
0.3
100
AcDbCircle
 10
64.5264963012641
 20
122.1156402821059
 30
0.0
 40
0.6123904772711058
100
AcDbArc
 50
147.8506176037466
 51
220.5542629625339
  0
LINE
  5
B4A
330
1B
100
AcDbEntity
 67
     1
  8
0
 62
     0
 48
0.2
100
AcDbLine
 10
64.81150505758276
 20
121.6768898952471
 30
0.0
 11
66.007458617823
 21
121.9973446858986
 31
0.0
  0
LINE
  5
B4C
330
1B
100
AcDbEntity
 67
     1
  8
0
 62
     0
 48
0.3
100
AcDbLine
 10
67.69406023809714
 20
123.0438980267045
 30
0.0
 11
103.9980245349362
 21
133.0922326742942
 31
0.0
  0
LINE
  5
BA4
330
1B
100
AcDbEntity
 67
     1
  8
0
 62
     0
 48
0.3
100
AcDbLine
 10
73.4245627484384
 20
124.474650983821
 30
0.0
 11
103.920554512806
 21
132.9067913765932
 31
0.0
  0
MTEXT
  5
BA7
330
1B
100
AcDbEntity
 67
     1
  8
0
 62
     0
 48
0.3
100
AcDbMText
 10
181.5694789814558
 20
168.6840273534348
 30
0.0
 40
3.0
 41
20.0668
 71
     1
 72
     5
  1
壁面側
 73
     1
 44
1.0
  0
LWPOLYLINE
  5
BA8
330
1B
100
AcDbEntity
 67
     1
  8
0
 62
     0
 48
0.3
100
AcDbPolyline
 90
        4
 70
     1
 43
0.0
 10
180.2580406710093
 20
169.3450392998282
 10
192.9277106343744
 20
169.3450392998282
 10
192.9277106343744
 20
164.5448139929227
 10
180.2580406710093
 20
164.5448139929227
  0
LWPOLYLINE
  5
BA9
330
1B
100
AcDbEntity
 67
     1
  8
0
 62
     0
 48
0.3
100
AcDbPolyline
 90
        4
 70
     1
 43
0.0
 10
127.462388695453
 20
76.28799045488921
 10
140.132058658818
 20
76.28799045488921
 10
140.132058658818
 20
71.48776514798368
 10
127.462388695453
 20
71.48776514798368
  0
MTEXT
  5
BAA
330
1B
100
AcDbEntity
 67
     1
  8
0
 62
     0
 48
0.3
100
AcDbMText
 10
128.7738270058995
 20
75.62697850849582
 30
0.0
 40
3.0
 41
20.0668
 71
     1
 72
     5
  1
家具側
 73
     1
 44
1.0
  0
LINE
  5
BAB
330
1B
100
AcDbEntity
 67
     1
  8
0
 62
     0
 48
0.3
100
AcDbLine
 10
230.9861906891175
 20
99.08111627646992
 30
0.0
 11
230.9861906891176
 21
53.61527215506881
 31
0.0
  0
LINE
  5
BAD
330
1B
100
AcDbEntity
 67
     1
  8
0
 62
     0
 48
0.2
100
AcDbLine
 10
227.4515230763224
 20
50.3152721550688
 30
0.0
 11
227.4515230763224
 21
35.01527215506878
 31
0.0
  0
LINE
  5
BAE
330
1B
100
AcDbEntity
 67
     1
  8
0
 62
     0
 48
0.2
100
AcDbLine
 10
235.4515230763224
 20
34.91527215506882
 30
0.0
 11
235.4515230763224
 21
50.3152721550688
 31
0.0
  0
LINE
  5
BAF
330
1B
100
AcDbEntity
 67
     1
  8
0
 62
     0
 48
0.2
100
AcDbLine
 10
230.8515230763224
 20
37.11527215506881
 30
0.0
 11
230.8515230763224
 21
22.11527215506881
 31
0.0
  0
LINE
  5
BB0
330
1B
100
AcDbEntity
 67
     1
  8
0
 62
     0
 48
0.2
100
AcDbLine
 10
232.0515230763224
 20
37.11527215506881
 30
0.0
 11
232.0515230763224
 21
22.11527215506881
 31
0.0
  0
ARC
  5
BB1
330
1B
100
AcDbEntity
 67
     1
  8
0
 62
     0
 48
0.2
100
AcDbCircle
 10
228.8515230763224
 20
22.11527215506881
 30
0.0
 40
2.0
100
AcDbArc
 50
270.0
 51
0.0
  0
LINE
  5
BB2
330
1B
100
AcDbEntity
 67
     1
  8
0
 62
     0
 48
0.2
100
AcDbLine
 10
228.8515230763224
 20
20.1152721550688
 30
0.0
 11
228.697580438288
 21
20.1152721550688
 31
0.0
  0
ARC
  5
BB3
330
1B
100
AcDbEntity
 67
     1
  8
0
 62
     0
 48
0.2
100
AcDbCircle
 10
228.697580438288
 20
21.6152721550688
 30
0.0
 40
1.5
100
AcDbArc
 50
211.1506788993426
 51
270.0
  0
LINE
  5
BB4
330
1B
100
AcDbEntity
 67
     1
  8
0
 62
     0
 48
0.2
100
AcDbLine
 10
226.2788110723836
 20
20.27317644418657
 30
0.0
 11
224.7657339084885
 21
22.91065125825339
 31
0.0
  0
ARC
  5
BB5
330
1B
100
AcDbEntity
 67
     1
  8
0
 62
     0
 48
0.2
100
AcDbCircle
 10
228.1870891855895
 20
21.36792511062056
 30
0.0
 40
2.2
100
AcDbArc
 50
209.8422046008483
 51
228.3610903188272
  0
ARC
  5
BB6
330
1B
100
AcDbEntity
 67
     1
  8
0
 62
     0
 48
0.2
100
AcDbCircle
 10
225.2699928927495
 20
23.23128938712757
 30
0.0
 40
0.5975666765273015
100
AcDbArc
 50
29.85070814358622
 51
212.4506496550997
  0
LINE
  5
BB7
330
1B
100
AcDbEntity
 67
     1
  8
0
 62
     0
 48
0.2
100
AcDbLine
 10
227.4138656349066
 20
20.8393363951122
 30
0.0
 11
225.7742518770105
 21
23.55192751600175
 31
0.0
  0
ARC
  5
BB8
330
1B
100
AcDbEntity
 67
     1
  8
0
 62
     0
 48
0.2
100
AcDbCircle
 10
228.8515230763224
 20
22.11527215506881
 30
0.0
 40
3.2
100
AcDbArc
 50
228.3610903188272
 51
0.0
  0
LINE
  5
BB9
330
1B
100
AcDbEntity
 67
     1
  8
0
 62
     0
 48
0.2
100
AcDbLine
 10
232.0515230763224
 20
34.61527215506881
 30
0.0
 11
235.1515230763225
 21
34.61527215506881
 31
0.0
  0
LINE
  5
BBA
330
1B
100
AcDbEntity
 67
     1
  8
0
 62
     0
 48
0.2
100
AcDbLine
 10
227.4515230763224
 20
42.6152721550688
 30
0.0
 11
235.4515230763224
 21
42.6152721550688
 31
0.0
  0
LINE
  5
BBB
330
1B
100
AcDbEntity
 67
     1
  8
0
 62
     0
 48
0.2
100
AcDbLine
 10
227.4515230763224
 20
35.01527215506878
 30
0.0
 11
227.5222337544411
 21
34.84456147695011
 31
0.0
  0
LINE
  5
BBC
330
1B
100
AcDbEntity
 67
     1
  8
0
 62
     0
 48
0.2
100
AcDbLine
 10
227.5222337544411
 20
34.84456147695011
 30
0.0
 11
227.7515230763224
 21
34.61527215506881
 31
0.0
  0
LINE
  5
BBD
330
1B
100
AcDbEntity
 67
     1
  8
0
 62
     0
 48
0.2
100
AcDbLine
 10
227.7515230763224
 20
34.61527215506881
 30
0.0
 11
230.8515230763225
 21
34.61527215506881
 31
0.0
  0
ARC
  5
BBE
330
1B
100
AcDbEntity
 67
     1
  8
0
 62
     0
 48
0.2
100
AcDbCircle
 10
231.4515230763224
 20
37.11527215506881
 30
0.0
 40
0.7
100
AcDbArc
 50
337.369564489194
 51
211.0027191338694
  0
ARC
  5
BBF
330
1B
100
AcDbEntity
 67
     1
  8
0
 62
     0
 48
0.2
100
AcDbCircle
 10
231.4515230763224
 20
37.11527215506881
 30
0.0
 40
0.6
100
AcDbArc
 50
0.0
 51
180.0
  0
LINE
  5
BC0
330
1B
100
AcDbEntity
 67
     1
  8
0
 62
     0
 48
0.2
100
AcDbLine
 10
235.4515230763224
 20
34.91527215506882
 30
0.0
 11
235.1515230763225
 21
34.61527215506881
 31
0.0
  0
LINE
  5
BC1
330
1B
100
AcDbEntity
 67
     1
  8
0
 62
     0
 48
0.2
100
AcDbLine
 10
235.1515230763225
 20
50.61527215506881
 30
0.0
 11
232.4515230763224
 21
50.61527215506881
 31
0.0
  0
LINE
  5
BC2
330
1B
100
AcDbEntity
 67
     1
  8
0
 62
     0
 48
0.2
100
AcDbLine
 10
232.4515230763224
 20
53.51527215506878
 30
0.0
 11
232.3515230763224
 21
53.61527215506881
 31
0.0
  0
LINE
  5
BC3
330
1B
100
AcDbEntity
 67
     1
  8
0
 62
     0
 48
0.2
100
AcDbLine
 10
230.4515230763224
 20
53.51527215506878
 30
0.0
 11
230.5515230763225
 21
53.61527215506881
 31
0.0
  0
LINE
  5
BC4
330
1B
100
AcDbEntity
 67
     1
  8
0
 62
     0
 48
0.2
100
AcDbLine
 10
230.4515230763224
 20
50.61527215506881
 30
0.0
 11
232.4515230763224
 21
50.61527215506881
 31
0.0
  0
LINE
  5
BC5
330
1B
100
AcDbEntity
 67
     1
  8
0
 62
     0
 48
0.2
100
AcDbLine
 10
227.7515230763224
 20
50.61527215506881
 30
0.0
 11
227.4515230763224
 21
50.3152721550688
 31
0.0
  0
LINE
  5
BC6
330
1B
100
AcDbEntity
 67
     1
  8
0
 62
     0
 48
0.2
100
AcDbLine
 10
230.4515230763224
 20
50.61527215506881
 30
0.0
 11
227.7515230763224
 21
50.61527215506881
 31
0.0
  0
LINE
  5
BC7
330
1B
100
AcDbEntity
 67
     1
  8
0
 62
     0
 48
0.2
100
AcDbLine
 10
230.4515230763224
 20
53.51527215506878
 30
0.0
 11
230.4515230763224
 21
50.61527215506881
 31
0.0
  0
LINE
  5
BC8
330
1B
100
AcDbEntity
 67
     1
  8
0
 62
     0
 48
0.2
100
AcDbLine
 10
232.4515230763224
 20
50.61527215506881
 30
0.0
 11
232.4515230763224
 21
53.51527215506878
 31
0.0
  0
LINE
  5
BC9
330
1B
100
AcDbEntity
 67
     1
  8
0
 62
     0
 48
0.2
100
AcDbLine
 10
232.3515230763224
 20
53.61527215506881
 30
0.0
 11
230.5515230763225
 21
53.61527215506881
 31
0.0
  0
LINE
  5
BCA
330
1B
100
AcDbEntity
 67
     1
  8
0
 62
     0
 48
0.2
100
AcDbLine
 10
235.1515230763225
 20
50.61527215506881
 30
0.0
 11
235.4515230763224
 21
50.3152721550688
 31
0.0
  0
LINE
  5
BCB
330
1B
100
AcDbEntity
 67
     1
  8
0
 62
     0
 48
0.5
100
AcDbLine
 10
230.9861906891176
 20
136.4154482467853
 30
0.0
 11
230.9861906891176
 21
174.6624328099644
 31
0.0
  0
LINE
  5
BCC
330
1B
100
AcDbEntity
 67
     1
  8
0
 62
     0
 48
0.5
100
AcDbLine
 10
231.7861906891176
 20
174.6624328099644
 30
0.0
 11
231.7861906891176
 21
136.4154482467853
 31
0.0
  0
LINE
  5
BCE
330
1B
100
AcDbEntity
 67
     1
  8
0
 62
     0
 48
0.3
100
AcDbLine
 10
230.9861906891176
 20
136.4154482467853
 30
0.0
 11
230.9861906891176
 21
113.6832457328176
 31
0.0
  0
LINE
  5
BCF
330
1B
100
AcDbEntity
 67
     1
  8
0
 62
     0
 48
0.3
100
AcDbLine
 10
231.7861906891176
 20
136.4154482467853
 30
0.0
 11
231.7861906891177
 21
113.6832457328176
 31
0.0
  0
LINE
  5
BD4
330
1B
100
AcDbEntity
 67
     1
  8
0
 62
     0
 48
0.5
100
AcDbLine
 10
231.7861906891176
 20
174.6624328099644
 30
0.0
 11
231.7861906891176
 21
174.7672374387648
 31
0.0
  0
LINE
  5
BD5
330
1B
100
AcDbEntity
 67
     1
  8
0
 62
     0
 48
0.5
100
AcDbLine
 10
230.9861906891176
 20
174.6624328099644
 30
0.0
 11
230.9861906891176
 21
174.7845752063768
 31
0.0
  0
CIRCLE
  5
BD6
330
1B
100
AcDbEntity
 67
     1
  8
0
 62
     0
 48
0.5
100
AcDbCircle
 10
231.3861906891176
 20
176.1624328099643
 30
0.0
 40
1.5
  0
LINE
  5
BE3
330
1B
100
AcDbEntity
 67
     1
  8
0
 62
     0
 48
0.5
100
AcDbLine
 10
171.6492551837782
 20
47.37004100815357
 30
0.0
 11
121.6492551837782
 21
47.37004100815357
 31
0.0
  0
LINE
  5
BE4
330
1B
100
AcDbEntity
 67
     1
  8
0
 62
     0
 48
0.5
100
AcDbLine
 10
121.6492551837782
 20
45.37004100815368
 30
0.0
 11
171.6492551837782
 21
45.37004100815368
 31
0.0
  0
LINE
  5
BE5
330
1B
100
AcDbEntity
 67
     1
  8
0
 62
     0
 48
0.5
100
AcDbLine
 10
121.6492551837782
 20
47.37004100815357
 30
0.0
 11
121.6492551837782
 21
45.37004100815368
 31
0.0
  0
LINE
  5
BE7
330
1B
100
AcDbEntity
 67
     1
  8
0
 62
     0
 48
0.5
100
AcDbLine
 10
180.4809739799159
 20
68.2003786773966
 30
0.0
 11
199.2005435473469
 21
73.3803734650975
 31
0.0
  0
LINE
  5
BE8
330
1B
100
AcDbEntity
 67
     1
  8
0
 62
     0
 48
0.5
100
AcDbLine
 10
172.9156064395107
 20
65.39640131746654
 30
0.0
 11
180.643013049823
 21
67.46695367828682
 31
0.0
  0
LINE
  5
BE9
330
1B
100
AcDbEntity
 67
     1
  8
0
 62
     0
 48
0.5
100
AcDbLine
 10
179.8665559145155
 20
70.36473115715399
 30
0.0
 11
172.1391493042028
 21
68.29417879633371
 31
0.0
  0
LINE
  5
BEA
330
1B
100
AcDbEntity
 67
     1
  8
0
 62
     0
 48
0.2
100
AcDbLine
 10
151.2367534057869
 20
55.96410352281257
 30
0.0
 11
163.1962890081894
 21
59.16865142932739
 31
0.0
  0
LINE
  5
BEB
330
1B
100
AcDbEntity
 67
     1
  8
0
 62
     0
 48
0.5
100
AcDbLine
 10
171.3109283598748
 20
71.38514144045888
 30
0.0
 11
170.943504898457
 21
71.59727347481481
 31
0.0
  0
LINE
  5
BEC
330
1B
100
AcDbEntity
 67
     1
  8
0
 62
     0
 48
0.5
100
AcDbLine
 10
173.7438273838384
 20
62.30543867334166
 30
0.0
 11
172.9156064395107
 21
65.39640131746654
 31
0.0
  0
LINE
  5
BED
330
1B
100
AcDbEntity
 67
     1
  8
0
 62
     0
 48
0.5
100
AcDbLine
 10
172.1391493042028
 20
68.29417879633371
 30
0.0
 11
172.9156064395107
 21
65.39640131746654
 31
0.0
  0
LINE
  5
BEE
330
1B
100
AcDbEntity
 67
     1
  8
0
 62
     0
 48
0.5
100
AcDbLine
 10
160.6080985571642
 20
68.82790969221804
 30
0.0
 11
160.9963271248182
 21
67.37902095278418
 31
0.0
  0
LINE
  5
BEF
330
1B
100
AcDbEntity
 67
     1
  8
0
 62
     0
 48
0.5
100
AcDbLine
 10
170.943504898457
 20
71.59727347481481
 30
0.0
 11
160.6080985571642
 21
68.82790969221804
 31
0.0
  0
LINE
  5
BF0
330
1B
100
AcDbEntity
 67
     1
  8
0
 62
     0
 48
0.5
100
AcDbLine
 10
172.1391493042028
 20
68.29417879633371
 30
0.0
 11
171.3109283598748
 21
71.38514144045888
 31
0.0
  0
LINE
  5
BF1
330
1B
100
AcDbEntity
 67
     1
  8
0
 62
     0
 48
0.5
100
AcDbLine
 10
162.8080604405357
 20
60.61754016876069
 30
0.0
 11
163.1962890081894
 21
59.16865142932739
 31
0.0
  0
LINE
  5
BF2
330
1B
100
AcDbEntity
 67
     1
  8
0
 62
     0
 48
0.5
100
AcDbLine
 10
163.1962890081894
 20
59.16865142932739
 30
0.0
 11
173.5316953494825
 21
61.93801521192416
 31
0.0
  0
LINE
  5
BF3
330
1B
100
AcDbEntity
 67
     1
  8
0
 62
     0
 48
0.5
100
AcDbLine
 10
173.7438273838384
 20
62.30543867334166
 30
0.0
 11
173.5316953494825
 21
61.93801521192416
 31
0.0
  0
LINE
  5
BF4
330
1B
100
AcDbEntity
 67
     1
  8
0
 62
     0
 48
0.5
100
AcDbLine
 10
160.9963271248182
 20
67.37902095278418
 30
0.0
 11
162.8080604405357
 21
60.61754016876069
 31
0.0
  0
ARC
  5
BF5
330
1B
100
AcDbEntity
 67
     1
  8
0
 62
     0
 48
0.5
100
AcDbCircle
 10
148.6782413707973
 20
52.88936513283307
 30
0.0
 40
4.0
100
AcDbArc
 50
6.901854347145329
 51
60.47828070481425
  0
LINE
  5
BF6
330
1B
100
AcDbEntity
 67
     1
  8
0
 62
     0
 48
0.5
100
AcDbLine
 10
152.6492551837782
 20
47.37004100815357
 30
0.0
 11
152.6492551837782
 21
53.37004100815352
 31
0.0
  0
LINE
  5
BF7
330
1B
100
AcDbEntity
 67
     1
  8
0
 62
     0
 48
0.3
100
AcDbLine
 10
179.8665559145155
 20
70.36473115715399
 30
0.0
 11
180.643013049823
 21
67.46695367828682
 31
0.0
  0
ARC
  5
BF8
330
1B
100
AcDbEntity
 67
     1
  8
0
 62
     0
 48
0.3
100
AcDbCircle
 10
148.3866658426004
 20
60.35160739140042
 30
0.0
 40
6.123904772711057
100
AcDbArc
 50
147.8506176037466
 51
220.5542629625339
  0
ARC
  5
BF9
330
1B
100
AcDbEntity
 67
     1
  8
0
 62
     0
 48
0.3
100
AcDbCircle
 10
144.7946274979429
 20
62.68565899740696
 30
0.0
 40
1.840301648143335
100
AcDbArc
 50
104.2199506705539
 51
147.8579613051991
  0
LINE
  5
BFA
330
1B
100
AcDbEntity
 67
     1
  8
0
 62
     0
 48
0.5
100
AcDbLine
 10
140.6492551837783
 20
53.37004100815352
 30
0.0
 11
140.6492551837783
 21
47.37004100815357
 31
0.0
  0
ARC
  5
BFB
330
1B
100
AcDbEntity
 67
     1
  8
0
 62
     0
 48
0.5
100
AcDbCircle
 10
144.6202689967591
 20
52.88936513283307
 30
0.0
 40
4.0
100
AcDbArc
 50
119.5217192951857
 51
173.0981456528546
  0
LINE
  5
BFC
330
1B
100
AcDbEntity
 67
     1
  8
0
 62
     0
 48
0.2
100
AcDbLine
 10
160.6080985571642
 20
68.82790969221804
 30
0.0
 11
144.2941663321619
 21
64.45660472715264
 31
0.0
  0
LINE
  5
BFD
330
1B
100
AcDbEntity
 67
     1
  8
0
 62
     0
 48
0.5
100
AcDbLine
 10
150.6492551837783
 20
56.37004100815364
 30
0.0
 11
142.6492551837782
 21
56.37004100815364
 31
0.0
  0
LINE
  5
BFE
330
1B
100
AcDbEntity
 67
     1
  8
0
 62
     0
 48
0.5
100
AcDbLine
 10
146.6492551837782
 20
47.37004100815357
 30
0.0
 11
152.6492551837782
 21
47.37004100815357
 31
0.0
  0
LINE
  5
BFF
330
1B
100
AcDbEntity
 67
     1
  8
0
 62
     0
 48
0.5
100
AcDbLine
 10
171.6492551837782
 20
45.37004100815368
 30
0.0
 11
171.6492551837782
 21
47.37004100815357
 31
0.0
  0
LINE
  5
C00
330
1B
100
AcDbEntity
 67
     1
  8
0
 62
     0
 48
0.5
100
AcDbLine
 10
199.2005435473469
 20
160.2300941263751
 30
0.0
 11
199.2005435473469
 21
137.1300941263751
 31
0.0
  0
LINE
  5
C01
330
1B
100
AcDbEntity
 67
     1
  8
0
 62
     0
 48
0.5
100
AcDbLine
 10
194.5505435473477
 20
158.130094126375
 30
0.0
 11
194.5505435473477
 21
145.1300941263752
 31
0.0
  0
LINE
  5
C02
330
1B
100
AcDbEntity
 67
     1
  8
0
 62
     0
 48
0.5
100
AcDbLine
 10
189.2005435473469
 20
157.6300941263752
 30
0.0
 11
189.2005435473469
 21
145.630094126375
 31
0.0
  0
LINE
  5
C03
330
1B
100
AcDbEntity
 67
     1
  8
0
 62
     0
 48
0.3
100
AcDbLine
 10
207.072530640596
 20
151.6262260835162
 30
0.0
 11
199.2005435473469
 21
152.6069083699402
 31
0.0
  0
ARC
  5
C04
330
1B
100
AcDbEntity
 67
     1
  8
0
 62
     0
 48
0.3
100
AcDbCircle
 10
198.0041694253287
 20
151.630094126375
 30
0.0
 40
2.155415169233374
100
AcDbArc
 50
111.890899807055
 51
174.6758917708783
  0
LINE
  5
C05
330
1B
100
AcDbEntity
 67
     1
  8
0
 62
     0
 48
0.5
100
AcDbLine
 10
191.550543547347
 20
151.630094126375
 30
0.0
 11
191.550543547347
 21
158.130094126375
 31
0.0
  0
LINE
  5
C06
330
1B
100
AcDbEntity
 67
     1
  8
0
 62
     0
 48
0.5
100
AcDbLine
 10
190.5505435473475
 20
151.630094126375
 30
0.0
 11
190.5505435473475
 21
155.630094126375
 31
0.0
  0
LINE
  5
C07
330
1B
100
AcDbEntity
 67
     1
  8
0
 62
     0
 48
0.5
100
AcDbLine
 10
191.550543547347
 20
151.630094126375
 30
0.0
 11
191.550543547347
 21
155.630094126375
 31
0.0
  0
LINE
  5
C08
330
1B
100
AcDbEntity
 67
     1
  8
0
 62
     0
 48
0.3
100
AcDbLine
 10
200.1655972437082
 20
152.4866831899114
 30
0.0
 11
200.00065253481
 21
150.7452203720049
 31
0.0
  0
LINE
  5
C09
330
1B
100
AcDbEntity
 67
     1
  8
0
 62
     0
 48
0.3
100
AcDbLine
 10
197.7005435473471
 20
151.630094126375
 30
0.0
 11
197.2005435473471
 21
152.1300941263751
 31
0.0
  0
LINE
  5
C0A
330
1B
100
AcDbEntity
 67
     1
  8
0
 62
     0
 48
0.3
100
AcDbLine
 10
204.6131181724534
 20
151.9326166065121
 30
0.0
 11
204.5543848605324
 21
151.3125186381292
 31
0.0
  0
LINE
  5
C0B
330
1B
100
AcDbEntity
 67
     1
  8
0
 62
     0
 48
0.3
100
AcDbLine
 10
203.130611196205
 20
152.1173054676455
 30
0.0
 11
203.0364740852916
 21
151.1234192160878
 31
0.0
  0
LINE
  5
C0C
330
1B
100
AcDbEntity
 67
     1
  8
0
 62
     0
 48
0.3
100
AcDbLine
 10
201.6481042199562
 20
152.3019943287783
 30
0.0
 11
201.5185633100508
 21
150.9343197940463
 31
0.0
  0
ARC
  5
C0D
330
1B
100
AcDbEntity
 67
     1
  8
0
 62
     0
 48
0.3
100
AcDbCircle
 10
171.301370388615
 20
151.630094126375
 30
0.0
 40
3.522102355740534
100
AcDbArc
 50
325.4000749434188
 51
34.59992505658157
  0
LINE
  5
C0E
330
1B
100
AcDbEntity
 67
     1
  8
0
 62
     0
 48
0.3
100
AcDbLine
 10
197.2005435473471
 20
150.7271484419472
 30
0.0
 11
197.2005435473471
 21
149.6300941263751
 31
0.0
  0
ARC
  5
C0F
330
1B
100
AcDbEntity
 67
     1
  8
0
 62
     0
 48
0.3
100
AcDbCircle
 10
198.0041694253287
 20
151.630094126375
 30
0.0
 40
2.155415169233374
100
AcDbArc
 50
185.3241082291201
 51
248.1091001929435
  0
LINE
  5
C10
330
1B
100
AcDbEntity
 67
     1
  8
0
 62
     0
 48
0.3
100
AcDbLine
 10
197.2005435473471
 20
151.1283975765052
 30
0.0
 11
197.2005435473471
 21
147.2372009075615
 31
0.0
  0
LINE
  5
C11
330
1B
100
AcDbEntity
 67
     1
  8
0
 62
     0
 48
0.5
100
AcDbLine
 10
190.5505435473475
 20
151.630094126375
 30
0.0
 11
190.5505435473475
 21
147.6300941263752
 31
0.0
  0
LINE
  5
C12
330
1B
100
AcDbEntity
 67
     1
  8
0
 62
     0
 48
0.5
100
AcDbLine
 10
191.550543547347
 20
151.630094126375
 30
0.0
 11
191.550543547347
 21
147.6300941263752
 31
0.0
  0
LINE
  5
C13
330
1B
100
AcDbEntity
 67
     1
  8
0
 62
     0
 48
0.5
100
AcDbLine
 10
191.550543547347
 20
151.630094126375
 30
0.0
 11
191.550543547347
 21
147.6300941263752
 31
0.0
  0
LINE
  5
C14
330
1B
100
AcDbEntity
 67
     1
  8
0
 62
     0
 48
0.5
100
AcDbLine
 10
191.550543547347
 20
145.1300941263752
 30
0.0
 11
191.550543547347
 21
151.630094126375
 31
0.0
  0
ARC
  5
C15
330
1B
100
AcDbEntity
 67
     1
  8
0
 62
     0
 48
0.3
100
AcDbCircle
 10
194.193595691995
 20
144.7935903897868
 30
0.0
 40
5.0
100
AcDbArc
 50
183.0208441177179
 51
213.0325430194644
  0
LINE
  5
C16
330
1B
100
AcDbEntity
 67
     1
  8
0
 62
     0
 48
0.5
100
AcDbLine
 10
191.550543547347
 20
147.6300941263752
 30
0.0
 11
189.2505435473468
 21
147.6300941263752
 31
0.0
  0
LINE
  5
C17
330
1B
100
AcDbEntity
 67
     1
  8
0
 62
     0
 48
0.3
100
AcDbLine
 10
190.7005435473466
 20
147.5300941263753
 30
0.0
 11
189.4005435473474
 21
147.5300941263753
 31
0.0
  0
LINE
  5
C18
330
1B
100
AcDbEntity
 67
     1
  8
0
 62
     0
 48
0.3
100
AcDbLine
 10
189.2005435473469
 20
147.3300941263752
 30
0.0
 11
189.2005435473469
 21
144.5300941263752
 31
0.0
  0
ARC
  5
C19
330
1B
100
AcDbEntity
 67
     1
  8
0
 62
     0
 48
0.3
100
AcDbCircle
 10
189.4005435473474
 20
147.3300941263752
 30
0.0
 40
0.2
100
AcDbArc
 50
90.0
 51
180.0
  0
LINE
  5
C1A
330
1B
100
AcDbEntity
 67
     1
  8
0
 62
     0
 48
0.3
100
AcDbLine
 10
197.9505435473469
 20
139.0300941263751
 30
0.0
 11
197.9505435473469
 21
142.5300941263753
 31
0.0
  0
LINE
  5
C1B
330
1B
100
AcDbEntity
 67
     1
  8
0
 62
     0
 48
0.3
100
AcDbLine
 10
193.9505435473471
 20
142.5300941263753
 30
0.0
 11
193.9505435473471
 21
139.0300941263751
 31
0.0
  0
LINE
  5
C1C
330
1B
100
AcDbEntity
 67
     1
  8
0
 62
     0
 48
0.3
100
AcDbLine
 10
190.0017902567059
 20
142.0680139016496
 30
0.0
 11
193.2674272092805
 21
137.5461072483681
 31
0.0
  0
LINE
  5
C1D
330
1B
100
AcDbEntity
 67
     1
  8
0
 62
     0
 48
0.3
100
AcDbLine
 10
193.9505435473471
 20
139.0300941263751
 30
0.0
 11
194.5005435473473
 21
139.0300941263751
 31
0.0
  0
LINE
  5
C1E
330
1B
100
AcDbEntity
 67
     1
  8
0
 62
     0
 48
0.3
100
AcDbLine
 10
194.7005435473471
 20
138.8300941263752
 30
0.0
 11
194.7005435473471
 21
137.3300941263752
 31
0.0
  0
LINE
  5
C1F
330
1B
100
AcDbEntity
 67
     1
  8
0
 62
     0
 48
0.3
100
AcDbLine
 10
194.5005435473473
 20
137.1300941263751
 30
0.0
 11
193.9861966375461
 21
137.1300941263751
 31
0.0
  0
ARC
  5
C20
330
1B
100
AcDbEntity
 67
     1
  8
0
 62
     0
 48
0.3
100
AcDbCircle
 10
194.5005435473473
 20
138.8300941263752
 30
0.0
 40
0.2
100
AcDbArc
 50
0.0
 51
90.0
  0
ARC
  5
C21
330
1B
100
AcDbEntity
 67
     1
  8
0
 62
     0
 48
0.3
100
AcDbCircle
 10
194.5005435473473
 20
137.3300941263752
 30
0.0
 40
0.2
100
AcDbArc
 50
270.0
 51
0.0
  0
LINE
  5
C22
330
1B
100
AcDbEntity
 67
     1
  8
0
 62
     0
 48
0.3
100
AcDbLine
 10
194.0693854920856
 20
137.1316142264259
 30
0.0
 11
194.2433700924469
 21
137.1300941263751
 31
0.0
  0
ARC
  5
C23
330
1B
100
AcDbEntity
 67
     1
  8
0
 62
     0
 48
0.3
100
AcDbCircle
 10
194.0781221390806
 20
138.1315760611973
 30
0.0
 40
1.0
100
AcDbArc
 50
215.8361163954256
 51
269.499420631834
  0
LINE
  5
C24
330
1B
100
AcDbEntity
 67
     1
  8
0
 62
     0
 48
0.3
100
AcDbLine
 10
197.2005435473471
 20
137.3300941263752
 30
0.0
 11
197.2005435473471
 21
138.8300941263752
 31
0.0
  0
LINE
  5
C25
330
1B
100
AcDbEntity
 67
     1
  8
0
 62
     0
 48
0.3
100
AcDbLine
 10
197.4005435473474
 20
139.0300941263751
 30
0.0
 11
197.9505435473469
 21
139.0300941263751
 31
0.0
  0
ARC
  5
C26
330
1B
100
AcDbEntity
 67
     1
  8
0
 62
     0
 48
0.3
100
AcDbCircle
 10
197.4005435473474
 20
138.8300941263752
 30
0.0
 40
0.2
100
AcDbArc
 50
90.0
 51
180.0
  0
ARC
  5
C27
330
1B
100
AcDbEntity
 67
     1
  8
0
 62
     0
 48
0.3
100
AcDbCircle
 10
197.4005435473474
 20
137.3300941263752
 30
0.0
 40
0.2
100
AcDbArc
 50
180.0
 51
270.0
  0
LINE
  5
C28
330
1B
100
AcDbEntity
 67
     1
  8
0
 62
     0
 48
0.3
100
AcDbLine
 10
199.2005435473469
 20
137.1300941263751
 30
0.0
 11
197.4005435473474
 21
137.1300941263751
 31
0.0
  0
LINE
  5
C29
330
1B
100
AcDbEntity
 67
     1
  8
0
 62
     0
 48
0.3
100
AcDbLine
 10
197.9505435473469
 20
142.5300941263753
 30
0.0
 11
193.9505435473471
 21
142.5300941263753
 31
0.0
  0
LINE
  5
C2A
330
1B
100
AcDbEntity
 67
     1
  8
0
 62
     0
 48
0.3
100
AcDbLine
 10
197.2005435473471
 20
144.5300941263752
 30
0.0
 11
191.2005435473473
 21
144.5300941263752
 31
0.0
  0
ARC
  5
C2B
330
1B
100
AcDbEntity
 67
     1
  8
0
 62
     0
 48
0.3
100
AcDbCircle
 10
191.2005435473473
 20
145.0300941263753
 30
0.0
 40
0.5
100
AcDbArc
 50
180.0
 51
270.0
  0
LINE
  5
C2C
330
1B
100
AcDbEntity
 67
     1
  8
0
 62
     0
 48
0.3
100
AcDbLine
 10
190.7005435473466
 20
145.0300941263753
 30
0.0
 11
190.7005435473466
 21
146.530094126375
 31
0.0
  0
LINE
  5
C2D
330
1B
100
AcDbEntity
 67
     1
  8
0
 62
     0
 48
0.3
100
AcDbLine
 10
190.7005435473466
 20
146.530094126375
 30
0.0
 11
190.7005435473466
 21
146.5303004070096
 31
0.0
  0
ARC
  5
C2E
330
1B
100
AcDbEntity
 67
     1
  8
0
 62
     0
 48
0.3
100
AcDbCircle
 10
190.7005435473466
 20
147.0300941263752
 30
0.0
 40
0.5
100
AcDbArc
 50
270.0
 51
90.0
  0
LINE
  5
C2F
330
1B
100
AcDbEntity
 67
     1
  8
0
 62
     0
 48
0.5
100
AcDbLine
 10
194.5505435473477
 20
145.1300941263752
 30
0.0
 11
191.550543547347
 21
145.1300941263752
 31
0.0
  0
ARC
  5
C30
330
1B
100
AcDbEntity
 67
     1
  8
0
 62
     0
 48
0.3
100
AcDbCircle
 10
197.2005435473471
 20
145.0300941263753
 30
0.0
 40
0.5
100
AcDbArc
 50
270.0
 51
0.0
  0
LINE
  5
C31
330
1B
100
AcDbEntity
 67
     1
  8
0
 62
     0
 48
0.3
100
AcDbLine
 10
197.7005435473471
 20
146.3229873451884
 30
0.0
 11
197.7005435473471
 21
145.0300941263753
 31
0.0
  0
LINE
  5
C32
330
1B
100
AcDbEntity
 67
     1
  8
0
 62
     0
 48
0.3
100
AcDbLine
 10
197.5540969379402
 20
146.676540735782
 30
0.0
 11
197.346990156754
 21
146.8836475169683
 31
0.0
  0
ARC
  5
C33
330
1B
100
AcDbEntity
 67
     1
  8
0
 62
     0
 48
0.3
100
AcDbCircle
 10
197.7005435473471
 20
147.2372009075615
 30
0.0
 40
0.5
100
AcDbArc
 50
180.0
 51
224.9999999999997
  0
ARC
  5
C34
330
1B
100
AcDbEntity
 67
     1
  8
0
 62
     0
 48
0.3
100
AcDbCircle
 10
197.2005435473471
 20
146.3229873451884
 30
0.0
 40
0.5
100
AcDbArc
 50
0.0
 51
44.99999999999857
  0
LINE
  5
C35
330
1B
100
AcDbEntity
 67
     1
  8
0
 62
     0
 48
0.3
100
AcDbLine
 10
199.2005435473469
 20
150.6455437970921
 30
0.0
 11
207.072530640596
 21
151.6262260835162
 31
0.0
  0
LINE
  5
C36
330
1B
100
AcDbEntity
 67
     1
  8
0
 62
     0
 48
0.3
100
AcDbLine
 10
197.2005435473471
 20
151.1300941263751
 30
0.0
 11
197.2005435473471
 21
150.7271484419472
 31
0.0
  0
LINE
  5
C37
330
1B
100
AcDbEntity
 67
     1
  8
0
 62
     0
 48
0.3
100
AcDbLine
 10
197.7005435473471
 20
151.630094126375
 30
0.0
 11
197.2005435473471
 21
151.1300941263751
 31
0.0
  0
LINE
  5
C38
330
1B
100
AcDbEntity
 67
     1
  8
0
 62
     0
 48
0.3
100
AcDbLine
 10
196.2997593322414
 20
151.630094126375
 30
0.0
 11
196.2997593322414
 21
151.8300941263751
 31
0.0
  0
LINE
  5
C39
330
1B
100
AcDbEntity
 67
     1
  8
0
 62
     0
 48
0.3
100
AcDbLine
 10
196.2997593322414
 20
151.630094126375
 30
0.0
 11
196.2997593322414
 21
151.4300941263751
 31
0.0
  0
LINE
  5
C3A
330
1B
100
AcDbEntity
 67
     1
  8
0
 62
     0
 48
0.3
100
AcDbLine
 10
196.2997593322414
 20
151.8300941263751
 30
0.0
 11
195.8580532700931
 21
151.8300941263751
 31
0.0
  0
LINE
  5
C3B
330
1B
100
AcDbEntity
 67
     1
  8
0
 62
     0
 48
0.3
100
AcDbLine
 10
195.8580532700931
 20
151.4300941263751
 30
0.0
 11
196.2997593322414
 21
151.4300941263751
 31
0.0
  0
LINE
  5
C3C
330
1B
100
AcDbEntity
 67
     1
  8
0
 62
     0
 48
0.3
100
AcDbLine
 10
206.0956251487015
 20
151.7479277453789
 30
0.0
 11
206.0722956357727
 21
151.5016180601707
 31
0.0
  0
ARC
  5
C3D
330
1B
100
AcDbEntity
 67
     1
  8
0
 62
     0
 48
0.5
100
AcDbCircle
 10
178.2005435473466
 20
149.6300941263751
 30
0.0
 40
4.0
100
AcDbArc
 50
180.0
 51
270.0
  0
ARC
  5
C3E
330
1B
100
AcDbEntity
 67
     1
  8
0
 62
     0
 48
0.3
100
AcDbCircle
 10
175.0399764377947
 20
148.8243619533045
 30
0.0
 40
2.082812629273261
100
AcDbArc
 50
98.17009995620255
 51
121.5230225047416
  0
LINE
  5
C3F
330
1B
100
AcDbEntity
 67
     1
  8
0
 62
     0
 48
0.5
100
AcDbLine
 10
178.2005435473466
 20
145.630094126375
 30
0.0
 11
189.2005435473469
 21
145.630094126375
 31
0.0
  0
ARC
  5
C40
330
1B
100
AcDbEntity
 67
     1
  8
0
 62
     0
 48
0.3
100
AcDbCircle
 10
191.2005435473473
 20
158.2300941263749
 30
0.0
 40
2.0
100
AcDbArc
 50
90.0
 51
180.0
  0
LINE
  5
C41
330
1B
100
AcDbEntity
 67
     1
  8
0
 62
     0
 48
0.5
100
AcDbLine
 10
191.550543547347
 20
155.630094126375
 30
0.0
 11
189.2005435473469
 21
155.630094126375
 31
0.0
  0
LINE
  5
C42
330
1B
100
AcDbEntity
 67
     1
  8
0
 62
     0
 48
0.3
100
AcDbLine
 10
189.4005435473474
 20
155.7300941263749
 30
0.0
 11
190.7005435473466
 21
155.7300941263749
 31
0.0
  0
LINE
  5
C43
330
1B
100
AcDbEntity
 67
     1
  8
0
 62
     0
 48
0.3
100
AcDbLine
 10
189.2005435473469
 20
158.2300941263749
 30
0.0
 11
189.2005435473469
 21
155.930094126375
 31
0.0
  0
ARC
  5
C44
330
1B
100
AcDbEntity
 67
     1
  8
0
 62
     0
 48
0.3
100
AcDbCircle
 10
189.4005435473474
 20
155.930094126375
 30
0.0
 40
0.2
100
AcDbArc
 50
180.0
 51
270.0
  0
ARC
  5
C45
330
1B
100
AcDbEntity
 67
     1
  8
0
 62
     0
 48
0.3
100
AcDbCircle
 10
189.4005435473474
 20
155.930094126375
 30
0.0
 40
0.2
100
AcDbArc
 50
180.0
 51
270.0
  0
ARC
  5
C46
330
1B
100
AcDbEntity
 67
     1
  8
0
 62
     0
 48
0.3
100
AcDbCircle
 10
197.2005435473471
 20
158.2300941263749
 30
0.0
 40
0.5
100
AcDbArc
 50
0.0
 51
90.0
  0
ARC
  5
C47
330
1B
100
AcDbEntity
 67
     1
  8
0
 62
     0
 48
0.3
100
AcDbCircle
 10
191.2005435473473
 20
158.2300941263749
 30
0.0
 40
0.5
100
AcDbArc
 50
90.0
 51
180.0
  0
LINE
  5
C48
330
1B
100
AcDbEntity
 67
     1
  8
0
 62
     0
 48
0.3
100
AcDbLine
 10
191.2005435473473
 20
158.730094126375
 30
0.0
 11
197.2005435473471
 21
158.730094126375
 31
0.0
  0
LINE
  5
C49
330
1B
100
AcDbEntity
 67
     1
  8
0
 62
     0
 48
0.3
100
AcDbLine
 10
190.7005435473466
 20
156.7300941263749
 30
0.0
 11
190.7005435473466
 21
158.2300941263749
 31
0.0
  0
ARC
  5
C4A
330
1B
100
AcDbEntity
 67
     1
  8
0
 62
     0
 48
0.3
100
AcDbCircle
 10
190.7005435473466
 20
156.230094126375
 30
0.0
 40
0.5
100
AcDbArc
 50
270.0
 51
90.0
  0
LINE
  5
C4B
330
1B
100
AcDbEntity
 67
     1
  8
0
 62
     0
 48
0.5
100
AcDbLine
 10
191.550543547347
 20
158.130094126375
 30
0.0
 11
194.5505435473477
 21
158.130094126375
 31
0.0
  0
LINE
  5
C4C
330
1B
100
AcDbEntity
 67
     1
  8
0
 62
     0
 48
0.3
100
AcDbLine
 10
197.7005435473471
 20
158.2300941263749
 30
0.0
 11
197.7005435473471
 21
156.9372009075618
 31
0.0
  0
LINE
  5
C4D
330
1B
100
AcDbEntity
 67
     1
  8
0
 62
     0
 48
0.3
100
AcDbLine
 10
197.5540969379402
 20
156.5836475169683
 30
0.0
 11
197.346990156754
 21
156.3765407357819
 31
0.0
  0
ARC
  5
C4E
330
1B
100
AcDbEntity
 67
     1
  8
0
 62
     0
 48
0.3
100
AcDbCircle
 10
197.7005435473471
 20
156.0229873451884
 30
0.0
 40
0.5
100
AcDbArc
 50
135.0000000000002
 51
180.0
  0
ARC
  5
C4F
330
1B
100
AcDbEntity
 67
     1
  8
0
 62
     0
 48
0.3
100
AcDbCircle
 10
197.2005435473471
 20
156.9372009075618
 30
0.0
 40
0.5
100
AcDbArc
 50
315.0000000000003
 51
0.0
  0
LINE
  5
C50
330
1B
100
AcDbEntity
 67
     1
  8
0
 62
     0
 48
0.3
100
AcDbLine
 10
197.2005435473471
 20
152.533039810803
 30
0.0
 11
197.2005435473471
 21
153.6300941263751
 31
0.0
  0
LINE
  5
C51
330
1B
100
AcDbEntity
 67
     1
  8
0
 62
     0
 48
0.3
100
AcDbLine
 10
197.2005435473471
 20
152.533039810803
 30
0.0
 11
197.2005435473471
 21
152.1300941263751
 31
0.0
  0
LINE
  5
C52
330
1B
100
AcDbEntity
 67
     1
  8
0
 62
     0
 48
0.3
100
AcDbLine
 10
197.2005435473471
 20
156.0229873451884
 30
0.0
 11
197.2005435473471
 21
152.1300941263751
 31
0.0
  0
LINE
  5
C53
330
1B
100
AcDbEntity
 67
     1
  8
0
 62
     0
 48
0.3
100
AcDbLine
 10
199.2005435473469
 20
160.2300941263751
 30
0.0
 11
191.2005435473473
 21
160.2300941263751
 31
0.0
  0
ARC
  5
C54
330
1B
100
AcDbEntity
 67
     1
  8
0
 62
     0
 48
0.5
100
AcDbCircle
 10
178.2005435473466
 20
153.6300941263751
 30
0.0
 40
4.0
100
AcDbArc
 50
90.0
 51
180.0
  0
LINE
  5
C55
330
1B
100
AcDbEntity
 67
     1
  8
0
 62
     0
 48
0.5
100
AcDbLine
 10
189.2005435473469
 20
157.6300941263752
 30
0.0
 11
178.2005435473466
 21
157.6300941263752
 31
0.0
  0
LINE
  5
C56
330
1B
100
AcDbEntity
 67
     1
  8
0
 62
     0
 48
0.3
100
AcDbLine
 10
180.0623052109307
 20
69.63418483738681
 30
0.0
 11
199.2005435473468
 21
74.93133150151526
 31
0.0
  0
LINE
  5
C5C
330
1B
100
AcDbEntity
 67
     1
  8
0
 62
     0
 48
0.3
100
AcDbLine
 10
124.8765967789813
 20
138.6568239145615
 30
0.0
 11
174.7256965522488
 21
152.4542272038351
 31
0.0
  0
LINE
  5
C5D
330
1B
100
AcDbEntity
 67
     1
  8
0
 62
     0
 48
0.3
100
AcDbLine
 10
124.8765967789813
 20
137.0307448910751
 30
0.0
 11
173.9509963309477
 21
150.5998142268256
 31
0.0
  0
LINE
  5
C5F
330
1B
100
AcDbEntity
 67
     1
  8
0
 62
     0
 48
0.3
100
AcDbLine
 10
110.0784162573171
 20
45.37004100815368
 30
0.0
 11
182.2239608923485
 21
45.37004100815368
 31
0.0
  0
LINE
  5
C60
330
1B
100
AcDbEntity
 67
     1
  8
0
 62
     0
 48
0.3
100
AcDbLine
 10
199.2005435473469
 20
142.5390039621871
 30
0.0
 11
199.2005435473469
 21
174.4133313028109
 31
0.0
  0
LINE
  5
C61
330
1B
100
AcDbEntity
 67
     1
  8
0
 62
     0
 48
0.3
100
AcDbLine
 10
199.2005435473469
 20
174.4133313028109
 30
0.0
 11
199.2005435473469
 21
118.6332584567192
 31
0.0
  0
LINE
  5
CDD
330
1B
100
AcDbEntity
 67
     1
  8
0
 62
     0
 48
0.3
100
AcDbLine
 10
106.445509234446
 20
24.89701449885421
 30
0.0
 11
109.9810431403787
 21
28.43254840478696
 31
0.0
  0
LINE
  5
CDE
330
1B
100
AcDbEntity
 67
     1
  8
0
 62
     0
 48
0.3
100
AcDbLine
 10
106.445509234446
 20
27.89701449885422
 30
0.0
 11
109.9810431403787
 21
31.43254840478695
 31
0.0
  0
LINE
  5
CDF
330
1B
100
AcDbEntity
 67
     1
  8
0
 62
     0
 48
0.3
100
AcDbLine
 10
106.445509234446
 20
30.89701449885422
 30
0.0
 11
109.9810431403787
 21
34.43254840478696
 31
0.0
  0
LINE
  5
CE0
330
1B
100
AcDbEntity
 67
     1
  8
0
 62
     0
 48
0.3
100
AcDbLine
 10
106.445509234446
 20
70.89701449885422
 30
0.0
 11
109.9810431403787
 21
74.43254840478696
 31
0.0
  0
LINE
  5
CE1
330
1B
100
AcDbEntity
 67
     1
  8
0
 62
     0
 48
0.3
100
AcDbLine
 10
106.445509234446
 20
67.89701449885422
 30
0.0
 11
109.9810431403787
 21
71.43254840478696
 31
0.0
  0
LINE
  5
CE2
330
1B
100
AcDbEntity
 67
     1
  8
0
 62
     0
 48
0.3
100
AcDbLine
 10
106.445509234446
 20
64.89701449885422
 30
0.0
 11
109.9810431403787
 21
68.43254840478696
 31
0.0
  0
LINE
  5
CE3
330
1B
100
AcDbEntity
 67
     1
  8
0
 62
     0
 48
0.3
100
AcDbLine
 10
106.445509234446
 20
110.8970144988542
 30
0.0
 11
109.9810431403787
 21
114.4325484047869
 31
0.0
  0
LINE
  5
CE4
330
1B
100
AcDbEntity
 67
     1
  8
0
 62
     0
 48
0.3
100
AcDbLine
 10
106.445509234446
 20
107.8970144988542
 30
0.0
 11
109.9810431403787
 21
111.4325484047869
 31
0.0
  0
LINE
  5
CE5
330
1B
100
AcDbEntity
 67
     1
  8
0
 62
     0
 48
0.3
100
AcDbLine
 10
106.445509234446
 20
104.8970144988542
 30
0.0
 11
109.9810431403787
 21
108.4325484047869
 31
0.0
  0
LINE
  5
CE6
330
1B
100
AcDbEntity
 67
     1
  8
0
 62
     0
 48
0.3
100
AcDbLine
 10
106.445509234446
 20
144.8970144988542
 30
0.0
 11
109.9810431403787
 21
148.4325484047869
 31
0.0
  0
LINE
  5
CE7
330
1B
100
AcDbEntity
 67
     1
  8
0
 62
     0
 48
0.3
100
AcDbLine
 10
106.445509234446
 20
147.8970144988542
 30
0.0
 11
109.9810431403787
 21
151.4325484047869
 31
0.0
  0
LINE
  5
CE8
330
1B
100
AcDbEntity
 67
     1
  8
0
 62
     0
 48
0.3
100
AcDbLine
 10
106.445509234446
 20
150.8970144988542
 30
0.0
 11
109.9810431403787
 21
154.4325484047869
 31
0.0
  0
LINE
  5
CEB
330
1B
100
AcDbEntity
 67
     1
  8
0
 62
     0
 48
0.3
100
AcDbLine
 10
231.7861906891176
 20
99.08111627646992
 30
0.0
 11
231.7861906891176
 21
53.61527215506881
 31
0.0
  0
LINE
  5
D48
330
1B
100
AcDbEntity
 67
     1
  8
Object
 62
     0
 48
0.5
100
AcDbLine
 10
126.4555668012652
 20
45.37004100815368
 30
0.0
 11
127.0042059320543
 21
45.27393092646204
 31
0.0
  0
LINE
  5
D4A
330
1B
100
AcDbEntity
 67
     1
  8
Object
 62
     0
 48
0.5
100
AcDbLine
 10
126.0488109379718
 20
51.08275366055766
 30
0.0
 11
123.9418109379718
 21
51.08275366055766
 31
0.0
  0
LINE
  5
D4B
330
1B
100
AcDbEntity
 67
     1
  8
Object
 62
     0
 48
0.5
100
AcDbLine
 10
124.9988109379719
 20
49.80989002767252
 30
0.0
 11
127.7154437271817
 21
49.33399287662242
 31
0.0
  0
LINE
  5
D4C
330
1B
100
AcDbEntity
 67
     1
  8
Object
 62
     0
 48
0.5
100
AcDbLine
 10
125.2019087267983
 20
48.69549197313748
 30
0.0
 11
127.5320840260685
 21
48.28729407801723
 31
0.0
  0
LINE
  5
D4D
330
1B
100
AcDbEntity
 67
     1
  8
Object
 62
     0
 48
0.5
100
AcDbLine
 10
125.3997665795158
 20
47.60984546060332
 30
0.0
 11
126.7686771457715
 21
47.37004100815357
 31
0.0
  0
LINE
  5
D4E
330
1B
100
AcDbEntity
 67
     1
  8
Object
 62
     0
 48
0.5
100
AcDbLine
 10
126.0488109379718
 20
51.08275366055766
 30
0.0
 11
123.9418109379719
 21
51.08275366055766
 31
0.0
  0
LINE
  5
D50
330
1B
100
AcDbEntity
 67
     1
  8
Object
 62
     0
 48
0.5
100
AcDbLine
 10
124.9988109379719
 20
49.80989002767252
 30
0.0
 11
125.4434706705675
 21
47.37004100815357
 31
0.0
  0
LINE
  5
D52
330
1B
100
AcDbEntity
 67
     1
  8
Object
 62
     0
 48
0.5
100
AcDbLine
 10
123.9418109379719
 20
50.86689002767251
 30
0.0
 11
124.9988109379719
 21
49.80989002767252
 31
0.0
  0
LINE
  5
D53
330
1B
100
AcDbEntity
 67
     1
  8
Object
 62
     0
 48
0.5
100
AcDbLine
 10
123.9418109379718
 20
51.08275366055766
 30
0.0
 11
123.9418109379718
 21
50.86689002767251
 31
0.0
  0
LINE
  5
D54
330
1B
100
AcDbEntity
 67
     1
  8
Object
 62
     0
 48
0.5
100
AcDbLine
 10
136.8717574927005
 20
51.08275366055767
 30
0.0
 11
138.7108029867054
 21
51.08275366055767
 31
0.0
  0
LINE
  5
D55
330
1B
100
AcDbEntity
 67
     1
  8
Object
 62
     0
 48
0.5
100
AcDbLine
 10
135.324855281527
 20
48.69549197313749
 30
0.0
 11
137.6550305807971
 21
48.28729407801725
 31
0.0
  0
LINE
  5
D56
330
1B
100
AcDbEntity
 67
     1
  8
Object
 62
     0
 48
0.5
100
AcDbLine
 10
135.1217574927005
 20
49.80989002767254
 30
0.0
 11
137.8383902819102
 21
49.33399287662243
 31
0.0
  0
LINE
  5
D57
330
1B
100
AcDbEntity
 67
     1
  8
Object
 62
     0
 48
0.5
100
AcDbLine
 10
135.5227131342444
 20
47.60984546060334
 30
0.0
 11
136.8916237005002
 21
47.37004100815357
 31
0.0
  0
LINE
  5
D58
330
1B
100
AcDbEntity
 67
     1
  8
Object
 62
     0
 48
0.5
100
AcDbLine
 10
137.9217574927005
 20
49.80989002767254
 30
0.0
 11
137.4943470594637
 21
47.37004100815358
 31
0.0
  0
LINE
  5
D59
330
1B
100
AcDbEntity
 67
     1
  8
Object
 62
     0
 48
0.5
100
AcDbLine
 10
127.7988109379718
 20
49.80989002767252
 30
0.0
 11
127.371400504735
 21
47.37004100815358
 31
0.0
  0
LINE
  5
D5A
330
1B
100
AcDbEntity
 67
     1
  8
Object
 62
     0
 48
0.5
100
AcDbLine
 10
135.1217574927005
 20
49.80989002767254
 30
0.0
 11
135.5664172252961
 21
47.37004100815357
 31
0.0
  0
LINE
  5
D5B
330
1B
100
AcDbEntity
 67
     1
  8
Object
 62
     0
 48
0.5
100
AcDbLine
 10
125.9769330701081
 20
44.44293154206488
 30
0.0
 11
126.8323805346329
 21
44.29307506795569
 31
0.0
  0
LINE
  5
D5C
330
1B
100
AcDbEntity
 67
     1
  8
Object
 62
     0
 48
0.5
100
AcDbLine
 10
126.3638133377298
 20
42.3201185854742
 30
0.0
 11
126.4867598924585
 21
42.32011858547423
 31
0.0
  0
LINE
  5
D5D
330
1B
100
AcDbEntity
 67
     1
  8
Object
 62
     0
 48
0.5
100
AcDbLine
 10
136.0998796248367
 20
44.4429315420649
 30
0.0
 11
136.9553270893615
 21
44.29307506795571
 31
0.0
  0
LINE
  5
D5E
330
1B
100
AcDbEntity
 67
     1
  8
Object
 62
     0
 48
0.5
100
AcDbLine
 10
136.5785133559938
 20
45.37004100815368
 30
0.0
 11
137.1271524867829
 21
45.27393092646206
 31
0.0
  0
LINE
  5
D5F
330
1B
100
AcDbEntity
 67
     1
  8
Object
 62
     0
 48
0.5
100
AcDbLine
 10
136.4867598924585
 20
42.32011858547422
 30
0.0
 11
136.6097064471871
 21
42.32011858547425
 31
0.0
  0
LINE
  5
D60
330
1B
100
AcDbEntity
 67
     1
  8
Object
 62
     0
 48
0.5
100
AcDbLine
 10
128.3199019259818
 20
51.08275366055766
 30
0.0
 11
128.8558109379719
 21
51.08275366055766
 31
0.0
  0
LINE
  5
D61
330
1B
100
AcDbEntity
 67
     1
  8
Object
 62
     0
 48
0.5
100
AcDbLine
 10
128.8558109379719
 20
51.08275366055766
 30
0.0
 11
128.8558109379719
 21
50.86689002767251
 31
0.0
  0
LINE
  5
D62
330
1B
100
AcDbEntity
 67
     1
  8
Object
 62
     0
 48
0.5
100
AcDbLine
 10
126.7488109379719
 20
51.08275366055766
 30
0.0
 11
126.7488109379719
 21
50.38275366055765
 31
0.0
  0
LINE
  5
D63
330
1B
100
AcDbEntity
 67
     1
  8
Object
 62
     0
 48
0.5
100
AcDbLine
 10
126.7488109379719
 20
50.38275366055765
 30
0.0
 11
126.0488109379718
 21
50.38275366055765
 31
0.0
  0
LINE
  5
D64
330
1B
100
AcDbEntity
 67
     1
  8
Object
 62
     0
 48
0.5
100
AcDbLine
 10
126.0488109379718
 20
50.38275366055765
 30
0.0
 11
126.0488109379718
 21
51.08275366055766
 31
0.0
  0
LINE
  5
D65
330
1B
100
AcDbEntity
 67
     1
  8
Object
 62
     0
 48
0.5
100
AcDbLine
 10
127.7988109379719
 20
49.80989002767252
 30
0.0
 11
128.8558109379719
 21
50.86689002767251
 31
0.0
  0
LINE
  5
D66
330
1B
100
AcDbEntity
 67
     1
  8
Object
 62
     0
 48
0.5
100
AcDbLine
 10
126.7488109379719
 20
51.08275366055766
 30
0.0
 11
128.5878564319768
 21
51.08275366055766
 31
0.0
  0
LINE
  5
D67
330
1B
100
AcDbEntity
 67
     1
  8
Object
 62
     0
 48
0.5
100
AcDbLine
 10
136.1717574927005
 20
50.38275366055767
 30
0.0
 11
136.1717574927005
 21
51.08275366055767
 31
0.0
  0
LINE
  5
D68
330
1B
100
AcDbEntity
 67
     1
  8
Object
 62
     0
 48
0.5
100
AcDbLine
 10
136.8717574927005
 20
50.38275366055767
 30
0.0
 11
136.1717574927005
 21
50.38275366055767
 31
0.0
  0
LINE
  5
D69
330
1B
100
AcDbEntity
 67
     1
  8
Object
 62
     0
 48
0.5
100
AcDbLine
 10
136.8717574927005
 20
51.08275366055767
 30
0.0
 11
136.8717574927005
 21
50.38275366055767
 31
0.0
  0
LINE
  5
D6A
330
1B
100
AcDbEntity
 67
     1
  8
Object
 62
     0
 48
0.5
100
AcDbLine
 10
134.0647574927005
 20
50.86689002767252
 30
0.0
 11
135.1217574927005
 21
49.80989002767254
 31
0.0
  0
LINE
  5
D6B
330
1B
100
AcDbEntity
 67
     1
  8
Object
 62
     0
 48
0.5
100
AcDbLine
 10
134.0647574927004
 20
51.08275366055767
 30
0.0
 11
134.0647574927004
 21
50.86689002767252
 31
0.0
  0
LINE
  5
D6D
330
1B
100
AcDbEntity
 67
     1
  8
Object
 62
     0
 48
0.5
100
AcDbLine
 10
136.1717574927004
 20
51.08275366055767
 30
0.0
 11
134.0647574927005
 21
51.08275366055767
 31
0.0
  0
LINE
  5
D6E
330
1B
100
AcDbEntity
 67
     1
  8
Object
 62
     0
 48
0.5
100
AcDbLine
 10
136.1717574927005
 20
51.08275366055767
 30
0.0
 11
134.0647574927004
 21
51.08275366055767
 31
0.0
  0
LINE
  5
D6F
330
1B
100
AcDbEntity
 67
     1
  8
Object
 62
     0
 48
0.5
100
AcDbLine
 10
137.9217574927005
 20
49.80989002767254
 30
0.0
 11
138.9787574927004
 21
50.86689002767252
 31
0.0
  0
LINE
  5
D70
330
1B
100
AcDbEntity
 67
     1
  8
Object
 62
     0
 48
0.5
100
AcDbLine
 10
138.9787574927004
 20
51.08275366055767
 30
0.0
 11
138.9787574927004
 21
50.86689002767252
 31
0.0
  0
LINE
  5
D71
330
1B
100
AcDbEntity
 67
     1
  8
Object
 62
     0
 48
0.5
100
AcDbLine
 10
138.4428484807103
 20
51.08275366055767
 30
0.0
 11
138.9787574927004
 21
51.08275366055767
 31
0.0
  0
LINE
  5
D72
330
1B
100
AcDbEntity
 67
     1
  8
Object
 62
     0
 48
0.5
100
AcDbLine
 10
155.1217574927005
 20
49.80989002767255
 30
0.0
 11
155.5664172252961
 21
47.37004100815357
 31
0.0
  0
LINE
  5
D73
330
1B
100
AcDbEntity
 67
     1
  8
Object
 62
     0
 48
0.5
100
AcDbLine
 10
157.9217574927005
 20
49.80989002767255
 30
0.0
 11
157.4943470594637
 21
47.37004100815358
 31
0.0
  0
LINE
  5
D74
330
1B
100
AcDbEntity
 67
     1
  8
Object
 62
     0
 48
0.5
100
AcDbLine
 10
156.0998796248367
 20
44.44293154206491
 30
0.0
 11
156.9553270893615
 21
44.29307506795573
 31
0.0
  0
LINE
  5
D75
330
1B
100
AcDbEntity
 67
     1
  8
Object
 62
     0
 48
0.5
100
AcDbLine
 10
156.5785133559939
 20
45.37004100815368
 30
0.0
 11
157.1271524867829
 21
45.27393092646207
 31
0.0
  0
LINE
  5
D76
330
1B
100
AcDbEntity
 67
     1
  8
Object
 62
     0
 48
0.5
100
AcDbLine
 10
156.4867598924585
 20
42.32011858547423
 30
0.0
 11
156.6097064471871
 21
42.32011858547426
 31
0.0
  0
LINE
  5
D77
330
1B
100
AcDbEntity
 67
     1
  8
Object
 62
     0
 48
0.5
100
AcDbLine
 10
154.0647574927004
 20
50.86689002767254
 30
0.0
 11
155.1217574927005
 21
49.80989002767255
 31
0.0
  0
LINE
  5
D78
330
1B
100
AcDbEntity
 67
     1
  8
Object
 62
     0
 48
0.5
100
AcDbLine
 10
156.1717574927004
 20
51.08275366055768
 30
0.0
 11
154.0647574927004
 21
51.08275366055768
 31
0.0
  0
LINE
  5
D79
330
1B
100
AcDbEntity
 67
     1
  8
Object
 62
     0
 48
0.5
100
AcDbLine
 10
156.1717574927005
 20
51.08275366055768
 30
0.0
 11
154.0647574927004
 21
51.08275366055768
 31
0.0
  0
LINE
  5
D7A
330
1B
100
AcDbEntity
 67
     1
  8
Object
 62
     0
 48
0.5
100
AcDbLine
 10
154.0647574927004
 20
51.08275366055768
 30
0.0
 11
154.0647574927004
 21
50.86689002767254
 31
0.0
  0
LINE
  5
D7B
330
1B
100
AcDbEntity
 67
     1
  8
Object
 62
     0
 48
0.5
100
AcDbLine
 10
157.9217574927005
 20
49.80989002767255
 30
0.0
 11
158.9787574927004
 21
50.86689002767254
 31
0.0
  0
LINE
  5
D7C
330
1B
100
AcDbEntity
 67
     1
  8
Object
 62
     0
 48
0.5
100
AcDbLine
 10
155.3248552815269
 20
48.69549197313751
 30
0.0
 11
157.6550305807971
 21
48.28729407801727
 31
0.0
  0
LINE
  5
D7D
330
1B
100
AcDbEntity
 67
     1
  8
Object
 62
     0
 48
0.5
100
AcDbLine
 10
155.1217574927005
 20
49.80989002767255
 30
0.0
 11
157.8383902819102
 21
49.33399287662244
 31
0.0
  0
LINE
  5
D7E
330
1B
100
AcDbEntity
 67
     1
  8
Object
 62
     0
 48
0.5
100
AcDbLine
 10
155.5227131342444
 20
47.60984546060335
 30
0.0
 11
156.8916237005004
 21
47.37004100815357
 31
0.0
  0
LINE
  5
D80
330
1B
100
AcDbEntity
 67
     1
  8
Object
 62
     0
 48
0.5
100
AcDbLine
 10
158.9787574927004
 20
51.08275366055768
 30
0.0
 11
158.9787574927004
 21
50.86689002767254
 31
0.0
  0
LINE
  5
D81
330
1B
100
AcDbEntity
 67
     1
  8
Object
 62
     0
 48
0.5
100
AcDbLine
 10
156.8717574927005
 20
51.08275366055768
 30
0.0
 11
158.7108029867054
 21
51.08275366055768
 31
0.0
  0
LINE
  5
D82
330
1B
100
AcDbEntity
 67
     1
  8
Object
 62
     0
 48
0.5
100
AcDbLine
 10
156.1717574927005
 20
50.38275366055768
 30
0.0
 11
156.1717574927005
 21
51.08275366055768
 31
0.0
  0
LINE
  5
D83
330
1B
100
AcDbEntity
 67
     1
  8
Object
 62
     0
 48
0.5
100
AcDbLine
 10
156.8717574927005
 20
50.38275366055768
 30
0.0
 11
156.1717574927005
 21
50.38275366055768
 31
0.0
  0
LINE
  5
D84
330
1B
100
AcDbEntity
 67
     1
  8
Object
 62
     0
 48
0.5
100
AcDbLine
 10
156.8717574927005
 20
51.08275366055768
 30
0.0
 11
156.8717574927005
 21
50.38275366055768
 31
0.0
  0
LINE
  5
D85
330
1B
100
AcDbEntity
 67
     1
  8
Object
 62
     0
 48
0.5
100
AcDbLine
 10
158.4428484807103
 20
51.08275366055768
 30
0.0
 11
158.9787574927004
 21
51.08275366055768
 31
0.0
  0
LINE
  5
D86
330
1B
100
AcDbEntity
 67
     1
  8
Object
 62
     0
 48
0.5
100
AcDbLine
 10
167.9217574927005
 20
49.80989002767252
 30
0.0
 11
167.4943470594637
 21
47.37004100815358
 31
0.0
  0
LINE
  5
D87
330
1B
100
AcDbEntity
 67
     1
  8
Object
 62
     0
 48
0.5
100
AcDbLine
 10
165.1217574927005
 20
49.80989002767252
 30
0.0
 11
165.5664172252961
 21
47.37004100815357
 31
0.0
  0
LINE
  5
D88
330
1B
100
AcDbEntity
 67
     1
  8
Object
 62
     0
 48
0.5
100
AcDbLine
 10
166.5785133559938
 20
45.37004100815368
 30
0.0
 11
167.1271524867829
 21
45.27393092646204
 31
0.0
  0
LINE
  5
D89
330
1B
100
AcDbEntity
 67
     1
  8
Object
 62
     0
 48
0.5
100
AcDbLine
 10
166.0998796248367
 20
44.44293154206488
 30
0.0
 11
166.9553270893615
 21
44.29307506795569
 31
0.0
  0
LINE
  5
D8A
330
1B
100
AcDbEntity
 67
     1
  8
Object
 62
     0
 48
0.5
100
AcDbLine
 10
166.4867598924585
 20
42.3201185854742
 30
0.0
 11
166.6097064471871
 21
42.32011858547423
 31
0.0
  0
LINE
  5
D8C
330
1B
100
AcDbEntity
 67
     1
  8
Object
 62
     0
 48
0.5
100
AcDbLine
 10
165.5227131342444
 20
47.60984546060332
 30
0.0
 11
166.8916237005001
 21
47.37004100815357
 31
0.0
  0
LINE
  5
D8D
330
1B
100
AcDbEntity
 67
     1
  8
Object
 62
     0
 48
0.5
100
AcDbLine
 10
165.1217574927005
 20
49.80989002767252
 30
0.0
 11
167.8383902819102
 21
49.33399287662242
 31
0.0
  0
LINE
  5
D8E
330
1B
100
AcDbEntity
 67
     1
  8
Object
 62
     0
 48
0.5
100
AcDbLine
 10
165.324855281527
 20
48.69549197313748
 30
0.0
 11
167.6550305807971
 21
48.28729407801723
 31
0.0
  0
LINE
  5
D8F
330
1B
100
AcDbEntity
 67
     1
  8
Object
 62
     0
 48
0.5
100
AcDbLine
 10
166.8717574927005
 20
50.38275366055765
 30
0.0
 11
166.1717574927005
 21
50.38275366055765
 31
0.0
  0
LINE
  5
D90
330
1B
100
AcDbEntity
 67
     1
  8
Object
 62
     0
 48
0.5
100
AcDbLine
 10
164.0647574927005
 20
50.86689002767251
 30
0.0
 11
165.1217574927005
 21
49.80989002767252
 31
0.0
  0
LINE
  5
D91
330
1B
100
AcDbEntity
 67
     1
  8
Object
 62
     0
 48
0.5
100
AcDbLine
 10
166.1717574927005
 20
50.38275366055765
 30
0.0
 11
166.1717574927005
 21
51.08275366055766
 31
0.0
  0
LINE
  5
D92
330
1B
100
AcDbEntity
 67
     1
  8
Object
 62
     0
 48
0.5
100
AcDbLine
 10
164.0647574927005
 20
51.08275366055766
 30
0.0
 11
164.0647574927005
 21
50.86689002767251
 31
0.0
  0
LINE
  5
D93
330
1B
100
AcDbEntity
 67
     1
  8
Object
 62
     0
 48
0.5
100
AcDbLine
 10
166.1717574927005
 20
51.08275366055766
 30
0.0
 11
164.0647574927005
 21
51.08275366055766
 31
0.0
  0
LINE
  5
D94
330
1B
100
AcDbEntity
 67
     1
  8
Object
 62
     0
 48
0.5
100
AcDbLine
 10
166.1717574927004
 20
51.08275366055766
 30
0.0
 11
164.0647574927005
 21
51.08275366055766
 31
0.0
  0
LINE
  5
D95
330
1B
100
AcDbEntity
 67
     1
  8
Object
 62
     0
 48
0.5
100
AcDbLine
 10
168.9787574927005
 20
51.08275366055766
 30
0.0
 11
168.9787574927005
 21
50.86689002767251
 31
0.0
  0
LINE
  5
D96
330
1B
100
AcDbEntity
 67
     1
  8
Object
 62
     0
 48
0.5
100
AcDbLine
 10
166.8717574927005
 20
51.08275366055766
 30
0.0
 11
168.7108029867054
 21
51.08275366055766
 31
0.0
  0
LINE
  5
D97
330
1B
100
AcDbEntity
 67
     1
  8
Object
 62
     0
 48
0.5
100
AcDbLine
 10
166.8717574927005
 20
51.08275366055766
 30
0.0
 11
166.8717574927005
 21
50.38275366055765
 31
0.0
  0
LINE
  5
D98
330
1B
100
AcDbEntity
 67
     1
  8
Object
 62
     0
 48
0.5
100
AcDbLine
 10
167.9217574927005
 20
49.80989002767252
 30
0.0
 11
168.9787574927005
 21
50.86689002767251
 31
0.0
  0
LINE
  5
D99
330
1B
100
AcDbEntity
 67
     1
  8
Object
 62
     0
 48
0.5
100
AcDbLine
 10
168.4428484807104
 20
51.08275366055766
 30
0.0
 11
168.9787574927005
 21
51.08275366055766
 31
0.0
  0
LINE
  5
D9A
330
1B
100
AcDbEntity
 67
     1
  8
Object
 62
     0
 48
0.5
100
AcDbLine
 10
125.8079684153364
 20
45.37004100815368
 30
0.0
 11
126.3638133377298
 21
42.3201185854742
 31
0.0
  0
LINE
  5
D9B
330
1B
100
AcDbEntity
 67
     1
  8
Object
 62
     0
 48
0.5
100
AcDbLine
 10
127.0210424048546
 20
45.37004100815368
 30
0.0
 11
126.4867598924585
 21
42.32011858547423
 31
0.0
  0
LINE
  5
D9C
330
1B
100
AcDbEntity
 67
     1
  8
Object
 62
     0
 48
0.5
100
AcDbLine
 10
135.930914970065
 20
45.37004100815368
 30
0.0
 11
136.4867598924585
 21
42.32011858547422
 31
0.0
  0
LINE
  5
D9D
330
1B
100
AcDbEntity
 67
     1
  8
Object
 62
     0
 48
0.5
100
AcDbLine
 10
137.1439889595833
 20
45.37004100815368
 30
0.0
 11
136.6097064471871
 21
42.32011858547425
 31
0.0
  0
LINE
  5
D9E
330
1B
100
AcDbEntity
 67
     1
  8
Object
 62
     0
 48
0.5
100
AcDbLine
 10
157.1439889595833
 20
45.37004100815368
 30
0.0
 11
156.6097064471871
 21
42.32011858547426
 31
0.0
  0
LINE
  5
D9F
330
1B
100
AcDbEntity
 67
     1
  8
Object
 62
     0
 48
0.5
100
AcDbLine
 10
155.930914970065
 20
45.37004100815368
 30
0.0
 11
156.4867598924585
 21
42.32011858547423
 31
0.0
  0
LINE
  5
DA0
330
1B
100
AcDbEntity
 67
     1
  8
Object
 62
     0
 48
0.5
100
AcDbLine
 10
165.930914970065
 20
45.37004100815368
 30
0.0
 11
166.4867598924585
 21
42.3201185854742
 31
0.0
  0
LINE
  5
DA1
330
1B
100
AcDbEntity
 67
     1
  8
Object
 62
     0
 48
0.5
100
AcDbLine
 10
167.1439889595833
 20
45.37004100815368
 30
0.0
 11
166.6097064471871
 21
42.32011858547423
 31
0.0
  0
MTEXT
  5
DA5
102
{ACAD_REACTORS
330
DA4
102
}
330
1B
100
AcDbEntity
 67
     1
  8
0
 62
     0
 48
0.3
100
AcDbMText
 10
243.8963711521374
 20
180.1237501616398
 30
0.0
 40
2.5
 41
0.0
 71
     9
 72
     1
  1
ピクチャーハンガー\PUIA-PF
 73
     1
 44
1.0
  0
LEADER
  5
DA6
330
1B
100
AcDbEntity
 67
     1
  8
0
 62
     0
 48
0.3
100
AcDbLeader
  3
ISO-25
 73
     0
 40
2.5
 41
13.33333333333333
 76
     3
 10
152.4511324446631
 20
66.64225720968534
 30
0.0
 10
152.4511324446631
 20
76.25912271881316
 30
0.0
 10
154.5616710420449
 20
76.25912271881316
 30
0.0
340
DA7
213
0.0
223
-1.25
233
0.0
1001
ACAD
1000
DSTYLE
1002
{
1070
   147
1040
0.625
1070
    77
1070
     0
1002
}
  0
MTEXT
  5
DA7
102
{ACAD_REACTORS
330
DA6
102
}
330
1B
100
AcDbEntity
 67
     1
  8
0
 62
     0
 48
0.3
100
AcDbMText
 10
155.1866710420449
 20
77.50912271881316
 30
0.0
 40
2.5
 41
0.0
 71
     1
 72
     1
  1
UIA-SA
 73
     1
 44
1.0
  0
LEADER
  5
DA8
330
1B
100
AcDbEntity
 67
     1
  8
0
 62
     0
 48
0.3
100
AcDbLeader
  3
ISO-25
 73
     0
 40
2.5
 41
31.83333333333333
 76
     3
 10
196.0110484160453
 20
140.4724447083733
 30
0.0
 10
196.0110484160453
 20
131.4957184098401
 30
0.0
 10
195.0253904383085
 20
131.4957184098401
 30
0.0
340
DA9
213
0.0
223
1.25
233
0.0
1001
ACAD
1000
DSTYLE
1002
{
1070
   147
1040
0.625
1070
    77
1070
     0
1002
}
  0
MTEXT
  5
DA9
102
{ACAD_REACTORS
330
DA8
102
}
330
1B
100
AcDbEntity
 67
     1
  8
0
 62
     0
 48
0.3
100
AcDbMText
 10
194.4003904383085
 20
130.2457184098401
 30
0.0
 40
2.5
 41
0.0
 71
     9
 72
     1
  1
ピクチャーハンガー用溝
 73
     1
 44
1.0
  0
LINE
  5
DB0
330
1B
100
AcDbEntity
 67
     1
  8
0
 62
     0
 48
0.3
100
AcDbLine
 10
129.5357200526719
 20
55.57315610467762
 30
0.0
 11
142.3858697860289
 21
59.12986422990154
 31
0.0
  0
LINE
  5
DB1
330
1B
100
AcDbEntity
 67
     1
  8
0
 62
     0
 48
0.5
100
AcDbLine
 10
129.9465275195073
 20
54.13693314254687
 30
0.0
 11
142.8614686649661
 21
57.71069735629966
 31
0.0
  0
LINE
  5
DB3
330
1B
100
AcDbEntity
 67
     1
  8
0
 62
     0
 48
0.3
100
AcDbLine
 10
126.399011424371
 20
53.15528050273069
 30
0.0
 11
126.399011424371
 21
53.15528050273069
 31
0.0
  0
LINE
  5
DBA
330
1B
100
AcDbEntity
 67
     1
  8
0
 62
     0
 48
0.3
100
AcDbLine
 10
126.4563702955157
 20
52.90840212025749
 30
0.0
 11
130.0112636960088
 21
53.91060915703542
 31
0.0
  0
LINE
  5
DBB
330
1B
100
AcDbEntity
 67
     1
  8
0
 62
     0
 48
0.3
100
AcDbLine
 10
125.917236050222
 20
54.79326801309685
 30
0.0
 11
129.4721294507151
 21
55.7954750498748
 31
0.0
  0
LINE
  5
DBD
330
1B
100
AcDbEntity
 67
     1
  8
0
 62
     0
 48
0.3
100
AcDbLine
 10
125.917236050222
 20
54.79326801309685
 30
0.0
 11
126.4491939181236
 21
52.90637893274927
 31
0.0
  0
LINE
  5
DBE
330
1B
100
AcDbEntity
 67
     1
  8
0
 62
     0
 48
0.3
100
AcDbLine
 10
129.4721294507151
 20
55.7954750498748
 30
0.0
 11
130.0112636960088
 21
53.91060915703542
 31
0.0
  0
LINE
  5
DC6
330
1B
100
AcDbEntity
 67
     1
  8
0
 62
     0
 48
0.5
100
AcDbLine
 10
62.73813255712332
 20
121.5279931987277
 30
0.0
 11
63.9664588500835
 21
121.867890105663
 31
0.0
  0
LINE
  5
DC7
330
1B
100
AcDbEntity
 67
     1
  8
0
 62
     0
 48
0.3
100
AcDbLine
 10
62.69705181043978
 20
121.6716154949408
 30
0.0
 11
63.92311728105108
 21
122.0109700637098
 31
0.0
  0
LINE
  5
DC8
330
1B
100
AcDbEntity
 67
     1
  8
0
 62
     0
 48
0.3
100
AcDbLine
 10
62.6906927502441
 20
121.6938473894605
 30
0.0
 11
62.74460617477348
 21
121.5053608001766
 31
0.0
  0
LINE
  5
DC9
330
1B
100
AcDbEntity
 67
     1
  8
0
 62
     0
 48
0.3
100
AcDbLine
 10
62.33520341019479
 20
121.5936266857827
 30
0.0
 11
62.38839919698495
 21
121.404937777748
 31
0.0
  0
LINE
  5
DCA
330
1B
100
AcDbEntity
 67
     1
  8
0
 62
     0
 48
0.3
100
AcDbLine
 10
62.33520341019479
 20
121.5936266857827
 30
0.0
 11
62.6906927502441
 21
121.6938473894605
 31
0.0
  0
LINE
  5
DCB
330
1B
100
AcDbEntity
 67
     1
  8
0
 62
     0
 48
0.3
100
AcDbLine
 10
62.38911683472416
 20
121.4051400964988
 30
0.0
 11
62.74460617477348
 21
121.5053608001766
 31
0.0
  0
LINE
  5
DCC
330
1B
100
AcDbEntity
 67
     1
  8
0
 62
     0
 48
0.3
100
AcDbLine
 10
62.38338094760968
 20
121.4298279347461
 30
0.0
 11
62.38338094760968
 21
121.4298279347461
 31
0.0
  0
LINE
  5
E71
330
1B
100
AcDbEntity
 67
     1
  8
0
 62
     0
 48
0.3
100
AcDbLine
 10
266.2566049101757
 20
147.2148449384928
 30
0.0
 11
266.2566049101757
 21
113.6832457328176
 31
0.0
  0
LINE
  5
E72
330
1B
100
AcDbEntity
 67
     1
  8
0
 62
     0
 48
0.3
100
AcDbLine
 10
267.4566049101757
 20
147.7233026969179
 30
0.0
 11
267.4566049101757
 21
113.6832457328176
 31
0.0
  0
LINE
  5
E73
330
1B
100
AcDbEntity
 67
     1
  8
0
 62
     0
 48
0.3
100
AcDbLine
 10
267.3571941561653
 20
20.18333953145798
 30
0.0
 11
267.3571941561653
 21
28.48039979714383
 31
0.0
  0
LINE
  5
E74
330
1B
100
AcDbEntity
 67
     1
  8
0
 62
     0
 48
0.3
100
AcDbLine
 10
266.1571941561652
 20
28.48039979714383
 30
0.0
 11
266.1571941561652
 21
20.18333953145798
 31
0.0
  0
LINE
  5
E77
330
1B
100
AcDbEntity
 67
     1
  8
0
 62
     0
 48
0.3
100
AcDbLine
 10
268.0071941561652
 20
12.18333953145799
 30
0.0
 11
268.0071941561652
 21
20.18333953145798
 31
0.0
  0
LINE
  5
E78
330
1B
100
AcDbEntity
 67
     1
  8
0
 62
     0
 48
0.3
100
AcDbLine
 10
265.5071941561652
 20
20.18333953145798
 30
0.0
 11
265.5071941561652
 21
12.18333953145799
 31
0.0
  0
LINE
  5
E79
330
1B
100
AcDbEntity
 67
     1
  8
0
 62
     0
 48
0.3
100
AcDbLine
 10
265.5071941561652
 20
12.18333953145799
 30
0.0
 11
268.0071941561652
 21
12.18333953145799
 31
0.0
  0
LINE
  5
E7A
330
1B
100
AcDbEntity
 67
     1
  8
0
 62
     0
 48
0.3
100
AcDbLine
 10
268.0071941561652
 20
20.18333953145798
 30
0.0
 11
265.5071941561652
 21
20.18333953145798
 31
0.0
  0
LINE
  5
E7B
330
1B
100
AcDbEntity
 67
     1
  8
0
 62
     0
 48
0.3
100
AcDbLine
 10
266.7571941561652
 20
20.18333953145798
 30
0.0
 11
265.5071941561652
 21
20.18333953145798
 31
0.0
  0
LINE
  5
E7C
330
1B
100
AcDbEntity
 67
     1
  8
0
 62
     0
 48
0.3
100
AcDbLine
 10
266.1571941561652
 20
20.18333953145798
 30
0.0
 11
267.3571941561653
 21
20.18333953145798
 31
0.0
  0
LINE
  5
E7D
330
1B
100
AcDbEntity
 67
     1
  8
0
 62
     0
 48
0.3
100
AcDbLine
 10
263.2571941561652
 20
57.98039979714383
 30
0.0
 11
263.2571941561652
 21
49.48039979714383
 31
0.0
  0
LINE
  5
E7E
330
1B
100
AcDbEntity
 67
     1
  8
0
 62
     0
 48
0.3
100
AcDbLine
 10
270.2571941561652
 20
49.48039979714383
 30
0.0
 11
270.2571941561652
 21
57.98039979714383
 31
0.0
  0
LINE
  5
E7F
330
1B
100
AcDbEntity
 67
     1
  8
0
 62
     0
 48
0.3
100
AcDbLine
 10
262.7571941561652
 20
30.98039979714383
 30
0.0
 11
262.325056877086
 21
30.98039979714383
 31
0.0
  0
ARC
  5
E80
330
1B
100
AcDbEntity
 67
     1
  8
0
 62
     0
 48
0.3
100
AcDbCircle
 10
262.4284517076511
 20
31.98039979714383
 30
0.0
 40
3.0
100
AcDbArc
 50
242.2717877564472
 51
270.0
  0
LINE
  5
E81
330
1B
100
AcDbEntity
 67
     1
  8
0
 62
     0
 48
0.3
100
AcDbLine
 10
262.7571941561652
 20
44.98039979714383
 30
0.0
 11
262.7571941561652
 21
30.98039979714383
 31
0.0
  0
LINE
  5
E82
330
1B
100
AcDbEntity
 67
     1
  8
0
 62
     0
 48
0.3
100
AcDbLine
 10
270.7571941561652
 20
30.98039979714383
 30
0.0
 11
270.7571941561652
 21
44.98039979714383
 31
0.0
  0
LINE
  5
E83
330
1B
100
AcDbEntity
 67
     1
  8
0
 62
     0
 48
0.3
100
AcDbLine
 10
266.7571941561652
 20
30.98039979714383
 30
0.0
 11
270.2571941561652
 21
30.98039979714383
 31
0.0
  0
LINE
  5
E84
330
1B
100
AcDbEntity
 67
     1
  8
0
 62
     0
 48
0.3
100
AcDbLine
 10
266.7571941561652
 20
30.98039979714383
 30
0.0
 11
272.2571941561652
 21
30.98039979714383
 31
0.0
  0
LINE
  5
E85
330
1B
100
AcDbEntity
 67
     1
  8
0
 62
     0
 48
0.3
100
AcDbLine
 10
263.2571941561652
 20
28.48039979714383
 30
0.0
 11
270.2571941561652
 21
28.48039979714383
 31
0.0
  0
LINE
  5
E86
330
1B
100
AcDbEntity
 67
     1
  8
0
 62
     0
 48
0.3
100
AcDbLine
 10
272.2571941561652
 20
28.98039979714383
 30
0.0
 11
262.4284517076511
 21
28.98039979714383
 31
0.0
  0
LINE
  5
E87
330
1B
100
AcDbEntity
 67
     1
  8
0
 62
     0
 48
0.3
100
AcDbLine
 10
270.7571941561652
 20
28.98039979714383
 30
0.0
 11
270.2571941561652
 21
28.48039979714383
 31
0.0
  0
LINE
  5
E88
330
1B
100
AcDbEntity
 67
     1
  8
0
 62
     0
 48
0.3
100
AcDbLine
 10
270.2571941561652
 20
28.48039979714383
 30
0.0
 11
270.2571941561652
 21
28.98039979714383
 31
0.0
  0
LINE
  5
E89
330
1B
100
AcDbEntity
 67
     1
  8
0
 62
     0
 48
0.3
100
AcDbLine
 10
272.2571941561652
 20
30.98039979714383
 30
0.0
 11
272.2571941561652
 21
28.98039979714383
 31
0.0
  0
LINE
  5
E8A
330
1B
100
AcDbEntity
 67
     1
  8
0
 62
     0
 48
0.3
100
AcDbLine
 10
272.2571941561652
 20
30.98039979714383
 30
0.0
 11
270.7571941561652
 21
30.98039979714383
 31
0.0
  0
LINE
  5
E8B
330
1B
100
AcDbEntity
 67
     1
  8
0
 62
     0
 48
0.3
100
AcDbLine
 10
266.7571941561652
 20
28.48039979714383
 30
0.0
 11
266.1571941561652
 21
28.48039979714383
 31
0.0
  0
LINE
  5
E8C
330
1B
100
AcDbEntity
 67
     1
  8
0
 62
     0
 48
0.3
100
AcDbLine
 10
262.7571941561652
 20
28.98039979714383
 30
0.0
 11
263.2571941561652
 21
28.48039979714383
 31
0.0
  0
LINE
  5
E8D
330
1B
100
AcDbEntity
 67
     1
  8
0
 62
     0
 48
0.3
100
AcDbLine
 10
263.2571941561652
 20
28.48039979714383
 30
0.0
 11
263.2571941561652
 21
28.98039979714383
 31
0.0
  0
LINE
  5
E8E
330
1B
100
AcDbEntity
 67
     1
  8
0
 62
     0
 48
0.3
100
AcDbLine
 10
266.7571941561652
 20
30.98039979714383
 30
0.0
 11
262.7571941561652
 21
30.98039979714383
 31
0.0
  0
LINE
  5
E8F
330
1B
100
AcDbEntity
 67
     1
  8
0
 62
     0
 48
0.3
100
AcDbLine
 10
262.7571941561652
 20
37.98039979714383
 30
0.0
 11
262.7571941561652
 21
36.48039979714383
 31
0.0
  0
LINE
  5
E90
330
1B
100
AcDbEntity
 67
     1
  8
0
 62
     0
 48
0.3
100
AcDbLine
 10
262.7571941561652
 20
37.98039979714383
 30
0.0
 11
262.7571941561652
 21
36.98039979714383
 31
0.0
  0
LINE
  5
E91
330
1B
100
AcDbEntity
 67
     1
  8
0
 62
     0
 48
0.3
100
AcDbLine
 10
264.2571941561652
 20
49.48039979714383
 30
0.0
 11
264.2571941561652
 21
44.98039979714383
 31
0.0
  0
LINE
  5
E92
330
1B
100
AcDbEntity
 67
     1
  8
0
 62
     0
 48
0.3
100
AcDbLine
 10
269.2571941561652
 20
44.98039979714383
 30
0.0
 11
269.2571941561652
 21
49.48039979714383
 31
0.0
  0
LINE
  5
E93
330
1B
100
AcDbEntity
 67
     1
  8
0
 62
     0
 48
0.3
100
AcDbLine
 10
266.7571941561652
 20
44.98039979714383
 30
0.0
 11
269.2571941561652
 21
44.98039979714383
 31
0.0
  0
LINE
  5
E94
330
1B
100
AcDbEntity
 67
     1
  8
0
 62
     0
 48
0.3
100
AcDbLine
 10
270.7571941561652
 20
44.98039979714383
 30
0.0
 11
262.7571941561652
 21
44.98039979714383
 31
0.0
  0
LINE
  5
E95
330
1B
100
AcDbEntity
 67
     1
  8
0
 62
     0
 48
0.3
100
AcDbLine
 10
264.2571941561652
 20
49.48039979714383
 30
0.0
 11
269.2571941561652
 21
49.48039979714383
 31
0.0
  0
LINE
  5
E96
330
1B
100
AcDbEntity
 67
     1
  8
0
 62
     0
 48
0.3
100
AcDbLine
 10
269.2571941561652
 20
49.48039979714383
 30
0.0
 11
270.2571941561652
 21
49.48039979714383
 31
0.0
  0
LINE
  5
E97
330
1B
100
AcDbEntity
 67
     1
  8
0
 62
     0
 48
0.3
100
AcDbLine
 10
263.2571941561652
 20
49.48039979714383
 30
0.0
 11
264.2571941561652
 21
49.48039979714383
 31
0.0
  0
ARC
  5
E98
330
1B
100
AcDbEntity
 67
     1
  8
0
 62
     0
 48
0.3
100
AcDbCircle
 10
247.8153321268268
 20
37.90365498540848
 30
0.0
 40
10.0
100
AcDbArc
 50
6.181276878260213
 51
36.39523663005839
  0
ARC
  5
E99
330
1B
100
AcDbEntity
 67
     1
  8
0
 62
     0
 48
0.3
100
AcDbCircle
 10
247.8244228027047
 20
37.92531347052471
 30
0.0
 40
8.0
100
AcDbArc
 50
7.43317617396758
 51
37.54352441522335
  0
ARC
  5
E9A
330
1B
100
AcDbEntity
 67
     1
  8
0
 62
     0
 48
0.3
100
AcDbCircle
 10
265.6853973864407
 20
38.17655221985046
 30
0.0
 40
10.0
100
AcDbArc
 50
189.7213400838152
 51
242.2717877564472
  0
ARC
  5
E9B
330
1B
100
AcDbEntity
 67
     1
  8
0
 62
     0
 48
0.3
100
AcDbCircle
 10
265.6992217821269
 20
37.94175154778497
 30
0.0
 40
8.0
100
AcDbArc
 50
191.2820858476566
 51
235.7807782525765
  0
ARC
  5
E9C
330
1B
100
AcDbEntity
 67
     1
  8
0
 62
     0
 48
0.3
100
AcDbCircle
 10
262.325056877086
 20
32.98039979714383
 30
0.0
 40
2.0
100
AcDbArc
 50
235.7807782525765
 51
270.0
  0
LINE
  5
E9D
330
1B
100
AcDbEntity
 67
     1
  8
0
 62
     0
 48
0.3
100
AcDbLine
 10
257.7571941561652
 20
37.35483294348103
 30
0.0
 11
257.7571941561652
 21
38.98039979714374
 31
0.0
  0
ARC
  5
E9E
330
1B
100
AcDbEntity
 67
     1
  8
0
 62
     0
 48
0.3
100
AcDbCircle
 10
262.7571941561652
 20
37.35483294348103
 30
0.0
 40
5.0
100
AcDbArc
 50
180.0
 51
191.2820858476566
  0
LINE
  5
E9F
330
1B
100
AcDbEntity
 67
     1
  8
0
 62
     0
 48
0.3
100
AcDbLine
 10
255.7571941561652
 20
37.33226973092735
 30
0.0
 11
255.7571941561652
 21
38.96027175650397
 31
0.0
  0
ARC
  5
EA0
330
1B
100
AcDbEntity
 67
     1
  8
0
 62
     0
 48
0.3
100
AcDbCircle
 10
260.7571941561652
 20
37.33226973092735
 30
0.0
 40
5.0
100
AcDbArc
 50
180.0
 51
189.7213400838152
  0
ARC
  5
EA1
330
1B
100
AcDbEntity
 67
     1
  8
0
 62
     0
 48
0.3
100
AcDbCircle
 10
255.7037747943294
 20
43.71850427679388
 30
0.0
 40
0.2
100
AcDbArc
 50
36.39523663005926
 51
120.0318348046609
  0
LINE
  5
EA2
330
1B
100
AcDbEntity
 67
     1
  8
0
 62
     0
 48
0.3
100
AcDbLine
 10
255.6036785731894
 20
43.89165376860222
 30
0.0
 11
254.2260300694084
 21
43.09524710377471
 31
0.0
  0
ARC
  5
EA3
330
1B
100
AcDbEntity
 67
     1
  8
0
 62
     0
 48
0.3
100
AcDbCircle
 10
254.3261262905484
 20
42.92209761196636
 30
0.0
 40
0.2
100
AcDbArc
 50
120.0318348046609
 51
217.5435244152262
  0
LINE
  5
EA4
330
1B
100
AcDbEntity
 67
     1
  8
0
 62
     0
 48
0.3
100
AcDbLine
 10
268.7571941561652
 20
59.48039979714383
 30
0.0
 11
264.7571941561652
 21
59.48039979714383
 31
0.0
  0
ARC
  5
EA5
330
1B
100
AcDbEntity
 67
     1
  8
0
 62
     0
 48
0.3
100
AcDbCircle
 10
268.7571941561652
 20
57.98039979714383
 30
0.0
 40
1.5
100
AcDbArc
 50
0.000000000000007
 51
90.0
  0
ARC
  5
EA6
330
1B
100
AcDbEntity
 67
     1
  8
0
 62
     0
 48
0.3
100
AcDbCircle
 10
264.7571941561652
 20
57.98039979714383
 30
0.0
 40
1.5
100
AcDbArc
 50
90.0
 51
180.0
  0
LINE
  5
EAB
330
1B
100
AcDbEntity
 67
     1
  8
0
 62
     0
 48
0.3
100
AcDbLine
 10
266.2566049101757
 20
156.5123645169492
 30
0.0
 11
266.2566049101757
 21
147.2148449384928
 31
0.0
  0
LINE
  5
EAC
330
1B
100
AcDbEntity
 67
     1
  8
0
 62
     0
 48
0.3
100
AcDbLine
 10
267.4566049101757
 20
157.2502568661886
 30
0.0
 11
267.4566049101757
 21
147.7233026969179
 31
0.0
  0
LINE
  5
F9A
330
1B
100
AcDbEntity
 67
     1
  8
0
 62
     0
 48
0.3
100
AcDbLine
 10
267.4566049101757
 20
157.2502568661886
 30
0.0
 11
267.4566049101757
 21
174.7876601014776
 31
0.0
  0
LINE
  5
F9C
330
1B
100
AcDbEntity
 67
     1
  8
0
 62
     0
 48
0.3
100
AcDbLine
 10
266.2566049101757
 20
156.5123645169492
 30
0.0
 11
266.2566049101757
 21
174.7876601014776
 31
0.0
  0
CIRCLE
  5
F9F
330
1B
100
AcDbEntity
 67
     1
  8
0
 62
     0
 48
0.5
100
AcDbCircle
 10
266.8566049101757
 20
176.1624328099643
 30
0.0
 40
1.5
  0
LINE
  5
FA5
330
1B
100
AcDbEntity
 67
     1
  8
0
 62
     0
 48
0.3
100
AcDbLine
 10
266.2566049101757
 20
70.623019843588
 30
0.0
 11
266.2566049101757
 21
59.48039979714383
 31
0.0
  0
LINE
  5
FA6
330
1B
100
AcDbEntity
 67
     1
  8
0
 62
     0
 48
0.3
100
AcDbLine
 10
267.4566049101757
 20
70.58403277630299
 30
0.0
 11
267.4566049101757
 21
59.48039979714383
 31
0.0
  0
LINE
  5
FAF
330
1B
100
AcDbEntity
 67
     1
  8
0
 62
     0
 48
0.3
100
AcDbLine
 10
230.9861906891175
 20
99.08111627646992
 30
0.0
 11
230.9861906891176
 21
109.2948272759417
 31
0.0
  0
LINE
  5
FB0
330
1B
100
AcDbEntity
 67
     1
  8
0
 62
     0
 48
0.3
100
AcDbLine
 10
231.7861906891176
 20
99.08111627646992
 30
0.0
 11
231.7861906891176
 21
109.2948272759417
 31
0.0
  0
LINE
  5
FB3
330
1B
100
AcDbEntity
 67
     1
  8
0
 62
     0
 48
0.3
100
AcDbLine
 10
267.4566049101757
 20
110.2196840440589
 30
0.0
 11
267.4566049101757
 21
70.58403277630299
 31
0.0
  0
LINE
  5
FB4
330
1B
100
AcDbEntity
 67
     1
  8
0
 62
     0
 48
0.3
100
AcDbLine
 10
266.2566049101757
 20
110.2196840440589
 30
0.0
 11
266.2566049101757
 21
70.623019843588
 31
0.0
  0
LINE
  5
FB5
330
1B
100
AcDbEntity
 67
     1
  8
0
 62
     0
 48
0.3
100
AcDbLine
 10
230.9861906891176
 20
110.2196840440589
 30
0.0
 11
230.9861906891176
 21
109.2948272759417
 31
0.0
  0
LINE
  5
FB6
330
1B
100
AcDbEntity
 67
     1
  8
0
 62
     0
 48
0.3
100
AcDbLine
 10
231.7861906891177
 20
110.2196840440589
 30
0.0
 11
231.7861906891176
 21
109.2948272759417
 31
0.0
  0
MTEXT
  5
FB8
102
{ACAD_REACTORS
330
FB9
102
}
330
1B
100
AcDbEntity
 67
     1
  8
0
 62
     0
 48
0.3
100
AcDbMText
 10
278.0637751085756
 20
180.4624026327537
 30
0.0
 40
2.5
 41
0.0
 71
     9
 72
     1
  1
ピクチャーハンガー\PUIA-1540
 73
     1
 44
1.0
  0
LEADER
  5
FBB
330
1B
100
AcDbEntity
 67
     1
  8
0
 62
     0
 48
0.3
100
AcDbLeader
  3
ISO-25
 73
     0
 40
2.5
 41
26.58333333333334
 76
     3
 10
230.9861906891175
 20
91.96338073126559
 30
0.0
 10
225.872822040844
 20
97.0180050562709
 30
0.0
 10
224.8614771944219
 20
97.0180050562709
 30
0.0
340
FBC
213
0.0
223
1.25
233
0.0
1001
ACAD
1000
DSTYLE
1002
{
1070
   147
1040
0.625
1070
    77
1070
     0
1002
}
  0
MTEXT
  5
FBC
102
{ACAD_REACTORS
330
FBB
102
}
330
1B
100
AcDbEntity
 67
     1
  8
0
 62
     0
 48
0.3
100
AcDbMText
 10
224.2364771944219
 20
95.7680050562709
 30
0.0
 40
2.5
 41
0.0
 71
     9
 72
     1
  1
%%c0.8SUSワイヤー
 73
     1
 44
1.0
  0
LEADER
  5
FBD
330
1B
100
AcDbEntity
 67
     1
  8
0
 62
     0
 48
0.3
100
AcDbLeader
  3
ISO-25
 73
     0
 40
2.5
 41
26.16666666666667
 76
     3
 10
266.2566049101757
 20
91.96338073126559
 30
0.0
 10
261.1432362619022
 20
97.0180050562709
 30
0.0
 10
260.13189141548
 20
97.0180050562709
 30
0.0
340
FBE
213
0.0
223
1.25
233
0.0
1001
ACAD
1000
DSTYLE
1002
{
1070
   147
1040
0.625
1070
    77
1070
     0
1002
}
  0
MTEXT
  5
FBE
102
{ACAD_REACTORS
330
FBD
102
}
330
1B
100
AcDbEntity
 67
     1
  8
0
 62
     0
 48
0.3
100
AcDbMText
 10
259.50689141548
 20
95.7680050562709
 30
0.0
 40
2.5
 41
0.0
 71
     9
 72
     1
  1
%%c1.2SUSワイヤー
 73
     1
 44
1.0
  0
ENDSEC
  0
SECTION
  2
OBJECTS
  0
DICTIONARY
  5
C
330
0
100
AcDbDictionary
281
     1
  3
ACAD_GROUP
350
D
  3
ACAD_LAYOUT
350
1A
  3
ACAD_MLINESTYLE
350
17
  3
ACAD_PLOTSETTINGS
350
19
  3
ACAD_PLOTSTYLENAME
350
E
  3
AcadDim
350
DA3
  3
AcDbVariableDictionary
350
3B9
  0
DICTIONARY
  5
D
102
{ACAD_REACTORS
330
C
102
}
330
C
100
AcDbDictionary
281
     1
  0
DICTIONARY
  5
1A
102
{ACAD_REACTORS
330
C
102
}
330
C
100
AcDbDictionary
281
     1
  3
JIS A4 Title Block (landscape)
350
1E
  3
Model
350
22
  0
DICTIONARY
  5
17
102
{ACAD_REACTORS
330
C
102
}
330
C
100
AcDbDictionary
281
     1
  3
Standard
350
18
  0
DICTIONARY
  5
19
102
{ACAD_REACTORS
330
C
102
}
330
C
100
AcDbDictionary
281
     1
  3
JIS A4 title block (landscape) - no output device
350
B9
  0
ACDBDICTIONARYWDFLT
  5
E
102
{ACAD_REACTORS
330
C
102
}
330
C
100
AcDbDictionary
281
     1
  3
Normal
350
F
100
AcDbDictionaryWithDefault
340
F
  0
XRECORD
  5
DA3
102
{ACAD_REACTORS
330
C
102
}
330
C
100
AcDbXrecord
280
     1
 90
   990106
  3

 60
     0
 61
     0
 62
     1
 63
     3
 64
     0
 65
     0
 66
     0
 67
     3
 68
     1
 69
     0
 70
     0
 71
     0
 72
     0
 40
0.0
170
     0
340
FBC
  0
DICTIONARY
  5
3B9
102
{ACAD_REACTORS
330
C
102
}
330
C
100
AcDbDictionary
281
     1
  3
SORTENTS
350
3BA
  0
LAYOUT
  5
1E
102
{ACAD_REACTORS
330
1A
102
}
330
1A
100
AcDbPlotSettings
  1

  2
EPSON PM-870C
  4
A4
  6

 40
3.174999952316284
 41
3.174999952316284
 42
3.175003051757812
 43
3.17498779296875
 44
210.0
 45
297.0
 46
6.82
 47
14.31
 48
0.0
 49
0.0
140
0.0
141
0.0
142
1.0
143
1.0
 70
   660
 72
     1
 73
     1
 74
     1
  7

 75
    16
147
1.0
148
-36.80481564845297
149
-5.221453879718922
100
AcDbLayout
  1
JIS A4 Title Block (landscape)
 70
     1
 71
     1
 10
19.31982785548422
 20
-4.773546072597362
 11
316.3198278554842
 21
205.2264539274026
 12
0.0
 22
0.0
 32
0.0
 14
36.79231189179972
 24
5.205663222579232
 34
-0.0000000349181948
 15
298.8176644821185
 25
195.2389940809524
 35
0.0000000814935746
146
0.0
 13
0.0
 23
0.0
 33
0.0
 16
1.0
 26
0.0
 36
0.0
 17
0.0
 27
1.0
 37
0.0
 76
     0
330
1B
331
2E
  0
LAYOUT
  5
22
102
{ACAD_REACTORS
330
1A
102
}
330
1A
100
AcDbPlotSettings
  1

  2
none_device
  4
Letter_(8.50_x_11.00_Inches)
  6

 40
6.349999904632568
 41
6.349999904632568
 42
6.350006103515625
 43
6.350006103515625
 44
215.8999938964843
 45
279.3999938964843
 46
0.0
 47
0.0
 48
0.0
 49
0.0
140
0.0
141
0.0
142
1.0
143
80.51211718508412
 70
 11920
 72
     0
 73
     1
 74
     0
  7

 75
     0
147
0.0124204906660344
148
51.18690022848504
149
577.6740347999296
100
AcDbLayout
  1
Model
 70
     1
 71
     0
 10
0.0
 20
0.0
 11
12.0
 21
9.0
 12
0.0
 22
0.0
 32
0.0
 14
0.0
 24
0.0
 34
0.0
 15
0.0
 25
0.0
 35
0.0
146
0.0
 13
0.0
 23
0.0
 33
0.0
 16
1.0
 26
0.0
 36
0.0
 17
0.0
 27
1.0
 37
0.0
 76
     0
330
1F
  0
MLINESTYLE
  5
18
102
{ACAD_REACTORS
330
17
102
}
330
17
100
AcDbMlineStyle
  2
STANDARD
 70
     0
  3

 62
   256
 51
90.0
 52
90.0
 71
     2
 49
0.5
 62
   256
  6
BYLAYER
 49
-0.5
 62
   256
  6
BYLAYER
  0
PLOTSETTINGS
  5
B9
102
{ACAD_REACTORS
330
19
102
}
330
19
100
AcDbPlotSettings
  1
JIS A4 title block (landscape) - no output device
  2
None
  4
ISO_A4_(210.00_x_297.00_MM)
  6

 40
7.549999999999999
 41
20.05
 42
7.549999999999999
 43
20.05
 44
210.0
 45
297.0
 46
-7.559999999999999
 47
-20.07
 48
0.0
 49
0.0
140
0.0
141
0.0
142
1.0
143
1.0
 70
   692
 72
     1
 73
     1
 74
     1
  7

 75
    16
147
1.0
148
0.0128164049386896
149
0.0090630292066862
  0
ACDBPLACEHOLDER
  5
F
102
{ACAD_REACTORS
330
E
102
}
330
E
  0
DICTIONARYVAR
  5
3BA
102
{ACAD_REACTORS
330
3B9
102
}
330
3B9
100
DictionaryVariables
280
     0
  1
96
  0
ENDSEC
  0
EOF
